Samsara - Drop D Chords & Tabs

 

Drop D Chords & Tabs

Samsara Chords & Tabs

Version: 2 Type: Bass Tab 0 ratings
1 star 2 stars 3 stars 4 stars 5 stars
comments

Drop D Bass Tab

   
intro/verse
g---------------------------------------------------------------------|
d---------------------------------------------------------------------|
a--7h8 7h8-7h8-7h8-7h8-7h8-7h8-7h8-6h7-6h7-6h7-6h7-6h7-6h7-6h7-6h7----|
d------------------------------------------------------------------7--|
[ Tab from: http://www.guitartabs.cc/tabs/s/samsara/drop_d_btab_ver_2.html ]
chorus
-----------------------------------------------|
-----------------------------------------------|
--------------------------------------------6--|
--1-0-1-0-1-0-1-0-1-0-1-0-1-0-1-0-4-44-5-55----|

bridge
a--------------------------|
 --------------------------|
 ----5b---3b----8b---7b----|
 --0----0-----0----0----0--|

b-------------------------------------------------------------------|
 -------------------------------------------------------------------|
 --5-0-5-0-5-0-5-0-3-0-3-0-3-0-3-0-8-0-8-0-8-0-8-0-7-0-7-0-7-0-7-0--|
 -------------------------------------------------------------------|
intro
verse
chorus
verse
chrous
bridge a
bridge b
intro
chorus
Comments