Samples - Who Am I Chords & Tabs

 

Who Am I Chords & Tabs

Samples Chords & Tabs

Version: 1 Type: Tab 0 ratings
1 star 2 stars 3 stars 4 stars 5 stars
comments

Who Am I Tab

   
#----------------------------------PLEASE NOTE---------------------------------#
#This file is the author's own work and represents their interpretation of the #
#song. You may only use this file for private study, scholarship, or research. #
#------------------------------------------------------------------------------#
********************************************************************************
Song title:  Who Am I
Artist: The Samples
Album: Transmissions from the Sea of Tranquility

Transcribed by: Huw Morgan  (huw_la@yahoo.com)

August 15, 2000
********************************************************************************
Notes- CAPO ON 3RD.  All chords and tabs relative to the capo.  Meaning, I am 
pretending the capo is the top of the guitar.  I recommend finger picking.  
Use your thumb for the E, A, and D strings and your index, middle, and ring 
finger for the G, B, and e strings.  Riff 3 and Solo 3 are incomplete. If 
anyone can completely figure them out please e-mail me the tab.  One more 
thing, throughout the song, The Samples play variations of the following 
excerpt:  --------------- Use your imagination and throw in some changes.
          ------------1--
          ----------0----
          --0-0-0h2------
          ---------------
          ---------------

Chords   
------
       EADGBe                    GCFA#Dg
C     (x32010)   ------->   D#  (x32010)
Am    (x02210)   Capo on    Cm  (x02210)

Intro
-----
            (C)                        (Am)                     (C)                  
e|--------------------------------------------------------------------------
B|--------1------1----------------------0h1--------------0--------1-----1---
G|------0------0----0---0---0---0----2------2---2------2---0---0------0-----
D|----2------2--------2-----------------------2--------------2----h2-------
A|--3---------------------3---2---0-------------------------------3---------
E|-------------------------------------------------1------------------------
            (C)             (Am)                         (C)
  -------------------------------0------------------------------------------
  ------------1-------------0h1----1--------0---------1----1-------------1--
  ----------0---0---0----2-----------2----2---0---0------0------------0-----
  --0-0-0h2-------2-----------------------------2-----h2------0-0-0h2-------
  ---------------------0------------------------------3---------------------
  --------------------------------------1-----------------------------------

  ------------|
  ------------|
  --0---0-----|
  ----2-------|
  ------------|
  ------------|

Riff 1
------
         (Am)                               (C)
e|---------------------------------------------------------------|
B|-------0h1--------------0---------1----1------------1----------|
G|----2------2---2------2---0---0------0-----------0----0---0----|
D|-------------2--------------2-----h2-----0-0-0h2--------2------|
A|-0--------------------------------3----------------------------|
E|------------------1--------------------------------------------|

Riff 2
------
         (Am)                               (C)
e|-----------0---------------------------------------------------|
B|-------0h1---1-----------0---------1----1------------1---------|
G|----2----------2------2----0---0------0-----------0----0---0---|
D|-----------------------------2-----h2-----0-0-0h2--------2-----|
A|-0---------------------------------3---------------------------|
E|------------------1--------------------------------------------|
[ Tab from: http://www.guitartabs.cc/tabs/s/samples/who_am_i_tab.html ]
Solo 1
------
                      (Am)                            (C)
e|------------0-------------------------------------------------------------- 
B|------1-------1------0h1------------0--------1-----1-------------1---------
G|----0-----0--------2-----2---2----2--0---0------0-------------0------0---0-
D|---------------------------2-----------2-----h2-------0-0-0h2--------------
A|-3------2-------0----------------------------3---------------------3---2---
E|-------------------------------1-------------------------------------------
         (Am)                              (C)                       (Am)             
  ---------------------------------------------------------------------------
  --------0h1--------------0--------1-----1-----------1---------------0h1----
  -----2-------2---2----2----0---0-----0------------0-----0---0----2-------2-
  ---------------2-------------2----h2------0-0-0h2--------------------------
  --0-------------------------------3-------------------3---2---0------------
  --------------------1------------------------------------------------------
                               (C)                       (Am)  
  ---------------------------------------------------------------------------
  ------------0---------------1------------1--------------0h1--------------0-
  ----2----2----0---0------0-------------0-------------2-------2---2----2----
  --2-------------2----2---------0-0-0h2------2p0----------------2-----------
  ------------------------------------------------2--0-----------------------
  -------1------------------------------------------------------------1------
                  (C)
  ------------------------------|
  ---------1-----1-----------1--|
  --0---0------0-----------0----|
  ----2----h2------0-0-0h2------|
  ---------3--------------------|
  ------------------------------|

Solo 2                                                Riff 3 [Not complete.]
------                                                ------
                  (C)
e|-----0-----------0-----------0-----------0--------- ---0-----------0------
B|-------1-----------1-----------1-----------1------- -----1-----------1----
G|---0-----0-----0-----0-----0-----0-----0-----0----- 0------0-----0-----0--
D|-----------2-----------2-----------2-----------2--- ---------2-----------2
A|-3-----------3-----------3-----------3-----------3- -----------3----------
E|--------------------------------------------------- ----------------------

Solo 3 [Close but not complete...]
------
         (C)           (Am)                             (C)
e|------------0-------------------------------------------------------------- 
B|------1-------1------0h1------------0--------1-----1-------------1---------
G|----0-----0--------2-----2---2----2--0---0------0-------------0------0---0-
D|---------------------------2-----------2-----h2-------0-0-0h2--------------
A|-3------2-------0----------------------------3---------------------3---2---
E|-------------------------------1-------------------------------------------

  -----------0---------0----------------------------------------------0------
  --------0----0-----0---0-------1---------h2p0-------------------0h1----1--
  -----2-----------0-----------0---0--0h2---------2----0---0---2--2----------
  ---------------------------------------------------------------------------
  --0-----------------------3------------------------3---3---0---------------
  ----------------1----------------------------------------------------------

  --------------------1---0-----------------------
  ------0----------3----------1---1---1---1--1----
  ----0---0-------------------0---0---0---0--0----
  ----------2---------------2---3---2-------------
  ------------3-3-------3---------------3---2--0--
  --1---------------------------------------------


Song/Lyrics:
-----------

[O'kay, this should be pretty simple.  On the left you see what riff to play
 while you sing the words on the right.]

Intro

Riff 1: Another starry night is above us
Riff 1: For the last ten million years it's been the same
Riff 2: In a moment's notice
Riff 1: not a stone unturned that someone didn't claim

Riff 2: who am I to know this, 
Riff 2: who am I to care

Riff 2: All the streets are sinking
Riff 1: cause the world goes half the speed of what it takes
Riff 2: and the wires from somewhere
Riff 1: sending signals to our homes from outer space

Riff 2: who am I to know this, 
Riff 1: who am I to care

Riff 1: From the warmth of being fine
Riff 1: to defending battle lines

Solo 1

Riff 2: in a car on the freeway
Riff 1: broken down from some new form of gasoline
Riff 2: in the door she's waiting
Riff 1: living up to every diamond in that ring

Riff 2: who am I to love you, 
Riff 2: who am I to care

Riff 2: who am I to know this.
Riff 1: who am I to care

Solo 2 

Riff 3: Another starry night is above us

Riff 1: Another starry night is above us
Riff 1: For the last ten million years it's been the same
Riff 2: in a moment's notice
Riff 1: not a stone unturned that someone didn't claim

Riff 2: who am I to love you, 
Riff 2: who am I to care

Riff 2: who am I to know this, 
Riff 2: who am I to breath

Riff 1: From the warmth of being fine
Riff 1: to defending battle lines

Solo 3


*feel free to e-mail me (huw_la@yahoo.com) any questions, comments, or 
 corrections.
Comments