Sammy Hagar - Right On Right Chords & Tabs

 

Right On Right Chords & Tabs

Sammy Hagar Chords & Tabs

Version: 1 Type: Tab 0 ratings
1 star 2 stars 3 stars 4 stars 5 stars
comments

Right On Right Tab

Well, i saw that this song wasn't on here, so i just figured it out. I think it's 90% 
might not be because I figured it out in like 30 seconds. But anyway, enjoy. This is a
song, and litsen to the song for exact timing. Corrections are welcome. Oh yea, and the
solo is missing. I'll add that laer.


Intro
e-------------------------------|
B-------------------------------|
G-------------------------------|
D-0-3-5-3-0-3-5---0-3-5-0-0-3-0-|
A-------------------------------|
E-------------------------------|
[ Tab from: http://www.guitartabs.cc/tabs/s/sammy_hagar/right_on_right_tab.html ]
e------------------------------|
B------------------------------|
G------------------------------|
D-5-3-0-3-0-3-5----------------|
A------------------------------|
E------------------------------|


-------------------------------|
-------------------------------|
-777-10-12---------------------|
-777-10-12----repeat as needed-|
-555-8--10---------------------|
-------------------------------|

just bass in verses, and parts of the intro randomly played

Chords repeated through chorus
-------------------------------|
-------------------------------|
-777-10-12---------------------|
-777-10-12----repeat as needed-|
-555-8--10---------------------|
-------------------------------|

solo....I haven't figured this out yet, but when I do I'll post it...


so, if you want correct it...I'll be happy if someone does the solo for mew lol....anyway...enjoy
Comments