Sammy Hagar - Mas Tequila Chords & Tabs

 

Mas Tequila Chords & Tabs

Sammy Hagar Chords & Tabs

Version: 1 Type: Tab 0 ratings
1 star 2 stars 3 stars 4 stars 5 stars
comments

Mas Tequila Tab

   
Gtr I, II (E A D G B E) - 'Rhythm w/dist'
Gtr III (E A D G B E) - 'Sammy Hagar - Lead w/dist'

Intro
  Q=130(8=s8)
 4/4
  Gtr I
                    <
  wx6          h    h      +w
|------------|-----------|-----------------|
|------------|-----------|-----------------|
|------------|------2----|-(2)-------------|
|------------|-----------|-----------------|
|------------|-----------|-----------------|
|------------|-----------|-----------------|
|
| gtr ii
|                           |-3--| |-3-|
| wx6          w            q  q q q q q
|------------|-----------|-----------------|
|------------|-----------|-----------------|
|------------|-----------|-----------------|
|------------|-----------|-----------------|
|------------|-----------|-----------------|
|------------|-----------|-----xsxsxsxsx/--|


  gtrs i, ii
                          ~
  q.   E h      E E E E E q  +E    q.   E E E  q     E E E E E E E E
|-------------|------------------|----------x------|-----------------|
|-------------|------------------|----------x------|-----------------|
|-9----7------|---2-2---2-4--(4)s|=9----7----------|---2-2---2-4-----|
|-9----7------|---2-2---2-4--(4)s|=9----7----------|---2-2---2-4-----|
|-7----5------|---0-0---0--------|-7----5----------|---0-0---0-------|
|-------------|-------3----------|------------12\--|-------3-----3-0-|


                                                 |-3-| |-3-|
  q.   E E E E E   q  E E q  E E   q  q  q  q    E E E E E E E E q
|----------------|---------------|-------------|--------------------------|
|----------------|---------------|-------------|--------------------------|
|-9----7---x-x-6-|-6--6-6-5--5s4-|-4--4--4--4--|-4-4-4-4-4-4-4-4----------|
|-9----7---x-x-6-|-6--6-6-5--5s4-|-4--4--4--4--|-4-4-4-4-4-4-4-4----------|
|-7----5---x-x-4-|-4--4-4-3--3s2-|-2--2--2--2--|-2-2-2-2-2-2-2-2----------|
|----------------|---------------|-------------|-----------------3b3.5----|


  gtrs i, ii
            pm|         pm|
  E E E E E E E E   E E E E  q     E  E
|-------3-------0-|---0-----------------|
|-------3-------0-|---0-----------------|
|-----------------|---1------------2p=0-|
|-----------------|----------------2p=0-|
|-----------2-2---|-----2-2--5-----0----|
|-0-3-0-----0-0---|-----0-0--3----------|
|
| gtr iii
| w                 h        E  E  E  E
|-----------------|---------------------|
|-----------------|---------------------|
|-----------------|------------------12-|
|-----------------|---------14p12-14----|
|-----------------|---------------------|
|-----------------|---------------------|


              pm|            pm|
   E  E E E E E   E  E   E E E E q     q
|---------3----------0-|---0---------------|
|---------3----------0-|---0---------------|
|----------------------|---1-----2-----0---|
|----------------------|---------2-----0---|
|-------------2---2----|-----2-2-0-----x---|
|--0--3-0-----0---0----|-----0-0-------3---|
|
|  ~~~
|                                |-3-|
|  h.            +E  E   h       E E E E E
|----------------------|-------------------|
|----------------------|-------------------|
|----------------------|-------------------|
|-14------------(14)---|-------------5-7-5-|
|----------------------|---------5h7-------|
|----------------------|-------------------|


            pm|           pm|
  E E E E E E E E    E  E E E  q   E   E
|-------3-------0-|-----0----------------|
|-------3-------0-|-----0----------------|
|-----------------|-----1----------2p==0-|
|-----------------|----------------2p==0-|
|-----------2-2---|-------2-2--5---0-----|
|-0-3-0-----0-0---|-------0-0--3---------|
|-rhy fig 1
|
| ~~~~~~~~~~~~~~~~~~~~~~
|                              |--3--|
| w                 +q    q    q q   q
|-----------------|----------------------|
|-----------------|----------------------|
|-----------------|--------------7---9---|
|-----------------|-----------/9---------|
|-7---------------|-(7)------------------|
|-----------------|----------------------|


                 pm|
                                 |-3-| |-3-| |-3-|
  E    E  E  E E E  E   E   E  E E E E E E E E E E
|------------3----------0-|-------------------------||
|------------3----------0-|-------------------------||
|-------------------------|---/9-7------------------||
|-------------------------|--------9-8-7s5-7-5------||
|----------------2--2-----|--------------------7-5--||
|-0----3--0------0--0-----|-------------------------||
|                                     end rhy fig 1-|
|   ~~~~~~~~~
| s E.   +h        +E   E   w
|-------------------------|-------------------------||
|-8-----------------------|-------------------------||
|---9----(9)-------(9)/---|-------------------------||
|-------------------------|-------------------------||
|-------------------------|-------------------------||
|-------------------------|-------------------------||


 verse
  gtrs i, ii
                                                       ~
  w          +h.      q    q.   E E E  q     E E E E E q  E
|-0--------|-(0)---------|----------x------|----------------|
|-0--------|-(0)---------|----------x------|----------------|
|-4--------|-(4)---------|-9----7----------|---2-2---2------|
|-2--------|-(2)---------|-9----7----------|---2-2---2------|
|-2--------|-(2)---------|-7----5----------|---0-0---0------|
|-0--------|-(0)---------|------------12\--|-------3---3--0-|
|-rhy fig 2                                   end rhy fig 2-|

                                                                      ~~
                                |--3---|
  w          +h     +E  E A    +E  +E  E   q.   E E E E E   E E E E E q.
|-0--------|-(0)----(0)-0----------------|----------------|-----------------|
|-0--------|-(0)----(0)-0----------------|----------------|-----------------|
|-4--------|-(4)----(4)---2b4==(2)r(2)-0-|-9----7---------|---2-2---2-4-----|
|-2--------|-(2)----(2)------------------|-9----7---x-x-x-|-x-2-2---2-4-----|
|-2--------|-(2)----(2)------------------|-7----5---x-x-x-|-x-0-0---0-------|
|-0--------|-(0)----(0)------------------|----------------|-------3---------|
|-rhy fig 2a                                                 end rhy fig 2a-|

  $$
  gtrs i, ii
   q.   e +h        q.   e +h        q.   e +h
|-------0-(0)----|-------3-(3)----|-------5-(5)----|
|-------0-(0)----|-------3-(3)----|-------5-(5)----|
|----------------|--0-------------|--2-------------|
|----------------|--0-------------|--2-------------|
|--2-------------|--x-------------|--0-------------|
|--0-------------|--3-------------|----------------|
|-rhy fig 3
|
| gtr iii
|  ~~~~~~~~~~~~~~~~~~~~~~~~~~~~~~~~~~~~~
|  w                w                w
|----------------|----------------|----------------|
|----------------|----------------|----------------|
|----------------|----------------|-12-------------|
|-14-------------|-12-------------|----------------|
|----------------|----------------|----------------|
|----------------|----------------|----------------|


          |-------3-------|                             |-------3-------|
          E  E            E  q                          E  E            E  q
|-------------------------------------------------------------------------------------------||
|-------------------------------------------------------------------------------------------||
|---------5--5------------5--5--------------------------7--7------------7--7----------------||
|---------5--5------------5--5--------------------------7--7------------7--7----------------||
|---------3--3------------3--3--------------------------5--5------------5--5----------------||
|-------------------------------------------------------------------------------------------||
|                                                                             end rhy fig 3-|
|         |---------------3---------------|             |---------------3---------------|
|  A     +q      A       +q      A       +q    A       +q      A       +q      A       +q
|-------------------------------------------------------------------------------------------||
|-------------------------------------------------------------------------------------------||
|-14b16=(14)r==(14)b16==(14)r==(14)b16==(14)r(14)b16==(14)r==(14)b16==(14)r==(14)b16==(14)r-||
|-------------------------------------------------------------------------------------------||
|-------------------------------------------------------------------------------------------||
|-------------------------------------------------------------------------------------------||


 chorus
  $
                                                   ~~
           q.            E   q     q     E E E E E q.     q.   E q   q
|--------------------------------------|----------------|-----------------|
|--------------------------------------|----------------|-----------------|
|----------9-------------7-------------|---2-2---2-4----|-9----7----------|
|----------9-------------7-------------|---2-2---2-4----|-9----7----------|
|----------7-------------5-------------|---0-0---0------|-7----5----------|
|---------------------------------12\--|-------3--------|-----------12\---|
|-rhy fig 4
|                      ~~
|          |---3----|
|  a      +e   +e   e  q    +q     q     w                w
|--------------------------------------|----------------|-----------------|
|--------------------------------------|----------------|-----------------|
|-14b16==(14)r(14)p12------------------|----------------|-----------------|
|---------------------14---(14)\-------|----------------|-----------------|
|--------------------------------------|----------------|-----------------|
|--------------------------------------|----------------|-----------------|


                                         to coda
                                  to double coda
  E E E E E E E E   q.   E E E E E   q  q  q  q
|-----------------|----------------|-------------|
|-----------------|----------------|-------------|
|---2-2---2-4-----|-9----7---x-x-6-|-6--6--5--5--|
|---2-2---2-4-----|-9----7---x-x-6-|-6--6--5--5--|
|---0-0---0-------|-7----5---x-x-4-|-4--4--3--3--|
|-------3-----3-0-|----------------|-------------|
                                   end rhy fig 4-|

        |-3-| |-3-|

  q  q  E E E E E E   E E q  E E q
|-------------------|-------------------||
|-------------------|-------------------||
|-4--4--4-4-4-4-4-4-|-4--------x--------||
|-4--4--4-4-4-4-4-4-|-4--------x--------||
|-2--2--2-2-2-2-2-2-|-2-----------------||
|-------------------|------------3b3.5--||


 interlude
w/rhy fig 1
|-----------------|----------------|


        |---3---|  |---3---|  |---3---|
  E  E  E  E    E  E  E    E  E  E    E    w
|----------------------------------------|------------------------|
|---17-15--------------------------------|------------------------|
|---------16---15-14s12---14-12----------|------------------------|
|-------------------------------14---12\-|------------------------|
|----------------------------------------|------------------------|
|----------------------------------------|------------------------|


rhy fig 2a

rhy fig 2

rhy fig 3 -> d.s. al coda


  &
  gtr iii
           |---3---|          |---3---|          |---3---|          |---3---|
   A      +E    E  E  A      +E    E  E  A      +E    E  E  A      +E    E  E
|-----------------------------------------------------------------------------|
|--------------12-12--------------12-12--------------12-12--------------12-12-|
|-14b16==(14)r-------14b16==(14)r-------14b16==(14)r-------14b16==(14)r-------|
|-----------------------------------------------------------------------------|
|-----------------------------------------------------------------------------|
|-----------------------------------------------------------------------------|
|
| gtrs i, ii
|                                                |---3---|          |---3---|
|          q                  q                  E    E  E          E    E  E
|-----------------------------------------------------------------------------|
|-----------------------------------------------------------------------------|
|----------4------------------4------------------4----4--4----------4----4--4-|
|----------4------------------4------------------4----4--4----------4----4--4-|
|----------2------------------2------------------2----2--2----------2----2--2-|
|-----------------------------------------------------------------------------|


   A      +E   E q  h
|------------------------||
|------------------------||
|-14b16==(14)r-----------||
|------------------------||
|------------------------||
|------------------------||
|
|          E   E q  h
|------------------------||
|------------------------||
|----------4-------------||
|----------4-------------||
|----------2-------------||
|------------------------||


 guitar solo
                                                                        ~~
                                                               |--3--|
   A  h.       +E   +E     +w                      +h     A A  E  E  E  q
|-----------------------|-----------------------|-------------16h17p14-16--|
|-----------------------|-----------------------|-----------x--------------|
|-----------------------|-----------------------|---------x----------------|
|-14s16-------(16)-(16)-|-(16)------------------|-(16)---------------------|
|-----------------------|-----------------------|--------------------------|
|-----------------------|-----------------------|--------------------------|
|
|  A  h.        E    E     +q   E E +q   s s  E    +w
|-----------------------|-----------------------|--------------------------|
|-----------------------|-----------------------|--------------------------|
|--9s11---------9----7--|--(7)--6-4-(4)---------|--------------------------|
|-----------------------|----------------7s9s11-|-(11)---------------------|
|--7s=9---------7----5--|--(5)--4-2-(2)---------|--------------------------|
|-----------------------|----------------5s7s=9-|--(9)---------------------|


    ~~~~                                  ~~~~~~~~~~~~~~~~~~~
         |--3--|  |--3--|  |---3----|
   +q    E  E  E  E  E  E  E  E     E     w              +h.           q
|-(16)--14----------------------------|---------------|-----------------------|
|----------14-17----14----------------|---------------|-----------------------|
|----------------16----14-16-------14-|---------------|-----------------------|
|----------------------------16-------|--16-----------|-(16)------------------|
|-------------------------------------|---------------|-----------------------|
|-------------------------------------|---------------|-----------------------|
|
|  +h.                     E     E       +h.      E E    +q   E E +q   s s  E
|-------------------------------------|---------------|-----------------------|
|-------------------------------------|---------------|-----------------------|
|--------------------------9s===11----|-(11)------9s7-|--(7)--6s4-(4)---------|
|-(11)--------------------------------|---------------|----------------7s9s11-|
|--------------------------7s====9----|--(9)------7s5-|--(5)--4s2-(2)---------|
|--(9)--------------------------------|---------------|----------------5s7s=9-|


        \7____/
                      |--3--|   |-----3-----|
    E   A    +q    E  E  E  E   E   E       E
|---------------------------------------------|
|---------------------------------------------|
|---------------------------------------------|
|--------------------------14------16---------|
|--------------------14h16-----16----------16-|
|------14---(14)--14--------------------------|
|
|  +h.                         +E      A E
|---------------------------------------------|
|---------------------------------------------|
|---------------------------------------------|
|-(11)------------------------(11)----11s9----|
|---------------------------------------------|
|--(9)-------------------------(9)-----9s7----|


                                                 ~~
   |--3---|              |---3----|  |-----3-----|
   E   E  E  s  s  s  s  E   E    E  E  E     A  E
|-----------------------------------14--------------|
|--------------------14-----14---17----14----17s19--|
|--------14----14h16----16--------------------------|
|-14h=16----16--------------------------------------|
|---------------------------------------------------|
|---------------------------------------------------|
|
| +h                    +E     E     E     E
|---------------------------------------------------|
|---------------------------------------------------|
|------------------------------------9h===11--------|
|-(9)-------------------(9)-------------------------|
|------------------------------------7h====9--------|
|-(7)-------------------(7)-------------------------|


    ~~~~
   +h.      A A  E  E    +q    E  A     +E   +q    E  A      +E
|---------------17-16-|-(16)--14---------------------------------|
|-(19)--------x-------|----------17b19r(17)-(17)--14-17b19==(17)-|
|-----------x---------|------------------------------------------|
|---------------------|------------------------------------------|
|---------------------|------------------------------------------|
|---------------------|------------------------------------------|
|
|  +h.           E  E    +q    E         E   +q    E  A       E
|---------------------|------------------------------------------|
|---------------------|------------------------------------------|
|-(11)----------14-13-|-(13)--11---------9---(9)---6--6s=====11--|
|---------------------|------------------------------------------|
|--(9)----------12-11-|-(11)---9---------7---(7)---4--4s======9--|
|---------------------|------------------------------------------|

[ Tab from: http://www.guitartabs.cc/tabs/s/sammy_hagar/mas_tequila_tab.html ]
   +q     E  A      +E   +q    +E   A      +E
|--------14-17b19==(17)-(17)r=(17)-19b21==(19)-|
|-(17)r----------------------------------------|
|----------------------------------------------|
|----------------------------------------------|
|----------------------------------------------|
|----------------------------------------------|
|
|  +h.                         +E   A       E
|----------------------------------------------|
|----------------------------------------------|
|-(11)------------------------(11)-11s======6--|
|----------------------------------------------|
|--(9)-------------------------(9)--9s======4--|
|----------------------------------------------|


                                                ~~~~~~~~~~
          |--3--|  |---3----|  |-------3--------|
   +q     E  E  E  E   E    E  E  E     A      +E     +h      E  +E   E  E
|-(19)r--19-19-17-19--17---19-17-14----------------|-----------------------|
|--------------------------------------17b19==(17)-|-(17)----17r(17)-17-15-|
|--------------------------------------------------|-----------------------|
|--------------------------------------------------|-----------------------|
|--------------------------------------------------|-----------------------|
|--------------------------------------------------|-----------------------|
|
|  +h             +E     E     E     E                +h.             E  E
|--------------------------------------------------|-----------------------|
|--------------------------------------------------|-----------------------|
|--(6)------------(6)----9-----9s===11-------------|-(11)-------------9s=7-|
|--------------------------------------------------|-----------------------|
|--(4)------------(4)----7-----7s====9-------------|--(9)-------------7s=5-|
|--------------------------------------------------|-----------------------|


            \0.5/
                                    ~~~~~~~~~~~
   +q    E  E      +q    E  A      +E     +h       q  q
|--------------------------------------|------------------||
|-(15)--14-----------------------------|------------------||
|----------16-----(16)--14-16b18==(16)-|-(16)r------------||
|----------16-----(16)-----------------|------------------||
|--------------------------------------|------------------||
|--------------------------------------|----------17s=2/--||
|
|  +q    E  E      +q    E          E     +w
|--------------------------------------|------------------||
|--------------------------------------|------------------||
|--(7)---6s=4------(4)-----------------|------------------||
|------------------------7s========11--|-(11)-------------||
|--(5)---4s=2------(2)-----------------|------------------||
|------------------------5s=========9--|--(9)-------------||


  ~                      ~
     |-3-| |-3-| |-3-|      |-3-| |-3--|  |--3--|
  q  E E E E E E E E E   q  E E E E E  E  E  E  E
|----------------------|--------------------------|
|----------------------|-----------------10----10-|
|----------------------|----7---9---9s11----11----|
|----------------7h9-9-|-9----9---9---------------|
|--------7---7s9-------|--------------------------|
|-7--7-7---------------|--------------------------|
|
| q  q     q     q       q  q     q       q
|----------------------|--------------------------|
|----------------------|--------------------------|
|----------------------|--------------------------|
|----------------------|--------------------------|
|-9--9-----9-----9-----|-9--9-----9-------9-------|
|-7--7-----7-----7-----|-7--7-----7-------7-------|


   ~~
          |--3--|  |--3--|          |------3-------|
   q      E  E  E  E  E  E  A      +E   E  A      +E
|-----------------15-16-17-17b19==(17)r---17b19==(17)r-|
|-12-----15-16-17--------------------------------------|
|------------------------------------------------------|
|------------------------------------------------------|
|------------------------------------------------------|
|------------------------------------------------------|
|
|  pm--------------------------------------------|
|  |-3-|  |--3--|  |--3--|          |------3-------|
|  E E E  E  E  E  E  E  E          E   E          E
|------------------------------------------------------|
|------------------------------------------------------|
|------------------------------------------------------|
|------------------------------------------------------|
|------------------------------------------------------|
|--7-7-7--7--7--7--7--7--7----------7---7----------7---|


                                             ~~~~~
  |----3-----|
  E  A      +q      A      +E      E        +h
|---19b22==(19)r---19b23==(19)r---21b24====(21)r----------|
|---------------------------------------------------------|
|---------------------------------------------------------|
|---------------------------------------------------------|
|---------------------------------------------------------|
|---------------------------------------------------------|
|
| |------3-------|          |-----3------|   |--3--|
| E          E   E          E   E        E   E   E E  q
|---------------------------------------------------------|
|---------------------------------------------------------|
|---------------------------------------------------------|
|---------------------------------------------------------|
|-9----------9---9----------9---9--------9---9---9-9------|
|-7----------7---7----------7---7--------7---7---7-7-15\--|


    |-3--|   |--3--|    |--3--|   |--3--|
  A E  E E A E E   E A  E   E E A E E   E
|---0--0-0---0-0---0----0---0-0---0-0---0-|
|-3s5--5-5-3s5-5---5-3s=5---5-5-3s5-5---5-|
|-----------------------------------------|
|-----------------------------------------|
|-----------------------------------------|
|-----------------------------------------|
|
|   q.           E     +q         E   E
|-----------------------------------------|
|-----------------------------------------|
|---9------------7-----(7)\---------------|
|---9------------7-----(7)\---------------|
|---7------------5-----(5)\-------x---x---|
|---------------------------------x---x---|


    |--3--|   |--3--|   |--3--|
  A E E   E A E E   E A E E   E E   E
|---0-0---0---0-0---0---0-0---0--------|
|-3s5-5---5-3s5-5---5-3s5-5---5-3/-----|
|--------------------------------------|
|--------------------------------------|
|----------------------------------14\-|
|----------------------------------14\-|
|
|   E   E     E   E     E   E   E   E
|--------------------------------------|
|--------------------------------------|
|--------------------------------------|
|--------------------------------------|
|-------x-----x---x---------x---x---x--|
|-------x-----x---x---------x---x---x--|


                ~~~~~~~~                          ~~~~~~~~
                                  |-------3-------|
  E  E A    +E  E  +q      q      E  E    A      +E   +h         q
|------------------------------|-12------------------------------------|
|------------------------------|----12---15b17==(15)-(15)-------15r\---|
|----0-2b4==(2)-2r-(2)---/14---|---------------------------------------|
|------------------------------|---------------------------------------|
|------------------------------|---------------------------------------|
|------------------------------|---------------------------------------|
|
| q.            E  +q      E E    E    E               E  E E E  E   E
|------------------------------|---------------------------------------|
|------------------------------|---------------------------------------|
|-9-------------7--(7)\--------|---------------------------------------|
|-9-------------7--(7)\--------|---------------------------------------|
|-7-------------5--(5)\----x-x-|-------x---------------x--x-x-x--x---x-|
|--------------------------x-x-|-------x---------------x--x-x-x--x---x-|


                   |-3--|         |---------3---------|
  E   A      +E   +E    q         q      E      +E    q
|----15b17==(15)-(15)r-15b15.5---12------------------12---|
|---------------------------------------15b17==(15)r------|
|---------------------------------------------------------|
|---------------------------------------------------------|
|---------------------------------------------------------|
|---------------------------------------------------------|
|
| q.                           E +E   E          E      E
|---------------------------------------------------------|
|---------------------------------------------------------|
|-9----------------------------7-(7)\---------------------|
|-9----------------------------7-(7)\---------------------|
|-7----------------------------5-(5)\-x----------x------x-|
|-------------------------------------x----------x------x-|


   |-------3-------|    |----3-----|                         |--3---|
   E  E    A      +E    E  A      +q      s  s      +s   s   E   E  E
|---------------------------------------------------------------------|
|-15-12----------------12----------------15---------------------------|
|---------14b16==(14)r----14b16==(14)r------14pb15r(14)p12--14p=12----|
|------------------------------------------------------------------14-|
|---------------------------------------------------------------------|
|---------------------------------------------------------------------|
|
|  E    E               E              E  E          E       q
|---------------------------------------------------------------------|
|---------------------------------------------------------------------|
|---------------------------------------------------------------------|
|---------------------------------------------------------------------|
|-------x---------------x--------------x-------------x----------------|
|-------x---------------x--------------x-------------x-----/12\-------|


           ~~~~~~~~~~~~~~~~~~~~~~~~~~
           |---3----|  |----3----|      |--3--|  |--3--|  |---3---|
   A      +q   q    q  q  q     +q      E  E  E  E  E  E  E  E    E  q
|------------------------------------|--------------------------------------||
|------------------------------------|----15----15-15-15-15-15---15-15------||
|-14b16==(14)-14---14-14-14r---(14)\-|-16----16-16-16-16-16-16---16-16------||
|------------------------------------|--------------------------------------||
|------------------------------------|--------------------------------------||
|------------------------------------|--------------------------------------||
|
|                                       |--3--|  |--3--|
|          q     q     q     q          E  E  E  E  E  E  E    E     q
|------------------------------------|--------------------------------------||
|------------------------------------|--------------------------------------||
|----------4-----4-----4-----4-------|--4--4--4--4--4--4--4----4------------||
|----------4-----4-----4-----4-------|--4--4--4--4--4--4--4----4------------||
|----------2-----2-----2-----2-------|--2--2--2--2--2--2--2----2------------||
|------------------------------------|-------------------------------3b3.5--||


 interlude
  gtrs i, ii
  w          +w           E E E E E E E E   E E E E E E E E
|-0--------|-(0)--------|-----------------|-----------------|
|-0--------|-(0)--------|-----------------|-----------------|
|----------|------------|-----------------|-----------------|
|----------|------------|-----------------|-----------------|
|----------|------------|-x-x-x-x-x-x-x-x-|-x-x-x-x-x-x-x-x-|
|----------|------------|-x-x-x-x-x-x-x-x-|-x-x-x-x-x-x-x-x-|


                                                                d.s.s. al dbl. coda
                                                        |-3-| |-3-|
  E E E E E E E E   E E E E E E E E   E E E E E E E E   E E E E E E  h
|-----------------|-----------------|-----------------|----------------------||
|-----------------|-----------------|-----------------|----------------------||
|-----------------|-----------------|-----------------|----------------------||
|-----------------|-----------------|-----------------|----------------------||
|-x-x-x-x-x-x-x-x-|-x-x-x-x-x-x-x-x-|-x-x-x-x-x-x-x-x-|-x-x-x-x-x-7s14\------||
|-x-x-x-x-x-x-x-x-|-x-x-x-x-x-x-x-x-|-x-x-x-x-x-x-x-x-|-x-x-x-x-x-7s14\------||


  &&
                |-3-| |-3-| |-3-|
  q  q  q  q    E E E E E E E E E E E
|-------------|-----------------------||
|-------------|-----------------------||
|-4--4--4--4--|-4-4-4-4-4-4-4-4-4-----||
|-4--4--4--4--|-4-4-4-4-4-4-4-4-4-----||
|-2--2--2--2--|-2-2-2-2-2-2-2-2-2-----||
|-------------|-------------------3p0-||


 out-chorus
 rhy fig 4


  gtr iii
                                                                    ~~~~~
                             |------------3------------|
  h     q   E  A      +E     q  A      +q      A      +q    A      +h
|--------------------------|------------------------------------------------|
|--------------------------|------------------------------------------------|
|----------12-14b15==(14)r-|---14b16==(14)r---14b16==(14)r-14b16==(14)r-----|
|--------------------------|------------------------------------------------|
|--------------------------|------------------------------------------------|
|--------------------------|------------------------------------------------|
|
| gtrs i, ii
| q  q  q   q                q              q                       q    q
|--------------------------|------------------------------------------------|
|--------------------------|------------------------------------------------|
|-4--4--4---4--------------|-4--------------4-----------------------4----4--|
|-4--4--4---4--------------|-4--------------4-----------------------4----4--|
|-2--2--2---2--------------|-2--------------2-----------------------2----2--|
|--------------------------|------------------------------------------------|


   |--3--|  |--3--|
   E  E  E  E  E  E  A      +E      E    A      +E      E
|-----------------------------------------------------------|
|----------------------------------15------------------15---|
|-14-14p12-14-14p12-14b16==(14)r--------14b16==(14)r--------|
|-----------------------------------------------------------|
|-----------------------------------------------------------|
|-----------------------------------------------------------|
|
|  |--3--|  |--3--|          |---3----|          |---3----|
|  E  E  E  E  E  E          E   E    E          E   E    E
|-----------------------------------------------------------|
|-----------------------------------------------------------|
|--4--4--4--4--4--4----------4---4----4----------4---4----4-|
|--4--4--4--4--4--4----------4---4----4----------4---4----4-|
|--2--2--2--2--2--2----------2---2----2----------2---2----2-|
|-----------------------------------------------------------|


    h.=h
  q    q       +q.          +e
|-------------------------------|
|-----15b18===(15)r========(15)-|
|-------------------------------|
|-------------------------------|
|-------------------------------|
|-------------------------------|
|
|               |-3--|
| e e  q        q  q q
|-------------------------------|
|-------------------------------|
|-4-----------------------------|
|-4-----------------------------|
|-2-----------------------------|
|--------------------3b3.5------|


  gtr iii
   h.                      E          E
|-12--------------------------------------:
|-------------------------15---------12---:
|-----------------------------------------:
|-----------------------------------------:
|-----------------------------------------:
|-----------------------------------------:
|
| gtr ii
|                          |-----3------|
|  h     E       E         E     E      E
|--0-----0-----------------------0--------:
|--0-------------0---------3------------3-:
|--4--------------------------------------:
|--2--------------------------------------:
|--2--------------------------------------:
|--0--------------------------------------:
|
| gtr iii
|                |--3---|
|  h     e a    +s  +s  s  t t t   t  e
|--0-----0--------------------------------:
|--0-----0--------------------------------:
|--4-------2b3==(2)r(2)p0-------------0---:
|--2-----------------------2p0------------:
|--2---------------------------2p==0------:
|--0--------------------------------------:


                                             |--3--|
   s  s  e  e.     s  t  t    s    s    s    s  s  s  s    s    q    +q    h
|-------12---------------------------------------------------:------------------*|
|-15-12----15-----12-----------------------------------------:------------------*|
|--------------------14p12h==14---12-------------------------:------------------*|
|--------------------------------------14---12h14p12---------:------------------*|
|----------------------------------------------------14---12-:-11---(11)\-------*|
|------------------------------------------------------------:------------------*|
|
|                     |---------5---------|
|  e     e  s s s  s  s    s    s    s    s  q                 +e e   q    h
|--------------------------------------------0---------------:-(0)--------------*|
|--3-----0-----------------------------------0---------------:-(0)--------------*|
|-----------2-0----------------------------------------------:--------9\--------*|
|---------------2--0-----------------------------------------:--------9\--------*|
|---------------------2----1p===0----------------------------:--------7\--------*|
|------------------------------------3----0------------------:----3/------------*|
|
|                                            |----3-----|
|  E     E  s s s  s  E            s    s    E     E    E       E E   q    h
|------------------------------------------------------------:------------------*|
|------------------------------------------------------------:--8s3s==8\--------*|
|------------------------------------------------------------:--7s2s==7\--------*|
|--2-----0------------2------------0-------------------------:------------------*|
|-----------1p0-------------------------2p===0---------------:------------------*|
|---------------3p=0-------------------------------3----0----:------------------*|
Comments