Samiam - Stepson Chords & Tabs

 

Stepson Chords & Tabs

Samiam Chords & Tabs

Version: 1 Type: Tab

Stepson Tab

   
Intro

The intro is played with 4 chords.
They go E, D, B sharp, and C.

When the lead guitar kicks in it plays this

E---------------------------------------------------------|
B---------------------------------------------------------|
G----7-----7------4--4--4-5--4-----------------------5--4-|
D------------------------------------0-----0--------------|
A-7-----7-----5------------------2-----2-------3--3-------|
E---------------------------------------------------------|

Verse "hands and head full" part. Palm muted
E------------------------------------------------------|
B------------------------------------------------------|
G---9-----7-----4----5---------------------------------|
D---9-----7-----4----5---------------------------------|
A---7-----5-----2----3---------------------------------|
E------------------------------------------------------|
[ Tab from: http://www.guitartabs.cc/tabs/s/samiam/stepson_tab.html ]
Chorus "Burn the house down"
E---------------------------------------------------------|
B---------------------------------------------------------|
G----7-----7------4--4--4-5--4-------0---------------5--4-|
D------------------------------------------0--------------|
A-7-----7-----5------------------2-----2-------3--3-------|
E---------------------------------------------------------|

Second Verse same as first verse

Beginning of bridge, begins right in the chorus
E------------------------------------------------------|
B------------------------------------------------------|
G--4---5---4---2---4---5---4---2-----------------------|
D--4---5---4---2---4---5---4---2--2--------------------|
A--2---3---2---0---2---3---2---0--2---7--Feedback------|
E---------------------------------3--------------------|

Bass plays by itself for a couple seconds then...
E--------------------------------------------------------|
B--------------------------------------------------------|
G--------------------------------------------------------|
D-7--5--9--7--9--7--9--7--10---9--10--9--10--9--10--9--5-|
A--------------------------------------------------------|
E--------------------------------------------------------|

Play that a bunch of times till the end of the song
and end on

E--------|
B--------|
G--------|
D---2----|
A---2----|
E---0----|