Samiam - No Size That Small Chords & Tabs

 

No Size That Small Chords & Tabs

Samiam Chords & Tabs

Version: 2 Type: Bass Tab 0 ratings
1 star 2 stars 3 stars 4 stars 5 stars
comments

No Size That Small Bass Tab

Song: No Size That Small
Band: Samiam
Album: Clumsy
tabbed by: Sperkins
                sperkins9@hotmail.com (From Australia)


Intro/Verse

G:---------------------------------------------------------------
D:---------------------------------------------------------------
A:---------7-7-777-4-4-444-5-5-555-------------------------------
E:-5-5-555-------------------------------------------------------


G:---------------------------------------------------------------
D:---------------------------------------------------------------
A:---------7-7-777-9-9-999-5-5-555-------------------------------
E:-5-5-555-------------------------------------------------------
[ Tab from: http://www.guitartabs.cc/tabs/s/samiam/no_size_that_small_btab_ver_2.html ]
Chorus/ Bass solo-y thing
G:-------4---------0--------0------------------------------------
D:-555555-5-0000002--2222220--44444454--Do-this-a-heap-of-times--
A:---------------------------------------------------------------
E:---------------------------------------------------------------

Bridge/ Over guitar solo
G:---------------------------------------------------------------
D:---------------------------------------------------------------
A:-------------------------2-2-222-------------------------------
E:-5-5-555-0-0-000-2-2-222---------------------------------------

I think the order is: Intro/Verse X3
                      Solo Thing  X6     
                      Intro/Verse X4
                      Solo Thing  X8
                      Bridge      X4
                      Intro       X3

This is my first tab ever (And I'm a guitarist!), so I hope I didn't
do too shitty a job. E-mail me with any corrections, queries or other
Samiam tabs 'cause I can only find 2 others on the whole Net. Seee Ya.
Comments