Samiam - Dull Chords & Tabs

 

Dull Chords & Tabs

Samiam Chords & Tabs

Version: 1 Type: Bass Tab

Dull Bass Tab

riff 1
G---------------------------------------------------------------------------|
D---------------------------------------------------------------------------|
A-999-555-----7-7-----------------------------------------------------------|
E---------555---------------------------------------------------------------|

riff 2
G---------------------------------------------------------------------------|
D---------------------------------------------------------------------------|
A-999999999----------55555555555555555--------------------5555555555555555--|
E-----------55555555-------------------99999999-777777777-------------------|

riff 3
G---------------------------------------------------------------------------|
D---------------------------------------------------------------------------|
A------5-----------9999999-7777777-----5---9999999-777777-5555555555555555--|
E-5----------7----------------------5----7----------------------------------|
[ Tab from: http://www.guitartabs.cc/tabs/s/samiam/dull_btab.html ]
riff 4
G---------------------------------------------------------------------------|
D---------------------------------------------------------------------------|
A-99999999-77777777-5555555555555555-99999999----------55555555555555555----|
E---------------------------------------------55555555----------------------|

riff 5
G---------------------------------------------------------------------------|
D---------------------------------------------------------------------------|
A-9-------5-----------------------------------------------------------------|
E-----5---------------------------------------------------------------------|

riff 6
G---------------------------------------------------------------------------|
D---------------------------------------------------------------------------|
A-999999999-777777777-55555555-99999999-7777777-55555555--------------------|
E---------------------------------------------------------------------------|
 

order...
riff 1 X4
riff 2 X2
riff 3 X1
riff 4 X2
riff 2 X2
riff 3 X1
riff 4 X2
riff 5 X4
riff 6 X4
riff 2 X2
riff 6 X4