Samiam - Cry Baby Cry Chords & Tabs

 

Cry Baby Cry Chords & Tabs

Samiam Chords & Tabs

Version: 1 Type: Bass Tab 0 ratings
1 star 2 stars 3 stars 4 stars 5 stars
comments

Cry Baby Cry Bass Tab

Band: Samiam
Album: You're Freaking out
Song: Cry Baby cry
Tabbed by: Ryan G

G:------------------------------------------------------------------------
D:-------5----------5----------5---------5-------3-1---------2-2-5
A:--7-7----7--6-6---6--5-5---5-4-4-----4--------3-3-5---------
E:------------------------------------------------------------------------

G:-------------------------------4-4------4--------------------------
D:-------5----------5---------------5-------5-5------3-3-1-1-1-
A:--7-7----7-6-6----6-5-5--------5-4-------4-4---------------3
E:----------------------------------------------------------------------
[ Tab from: http://www.guitartabs.cc/tabs/s/samiam/cry_baby_cry_btab.html ]
G:---------------------------------------------------4-2-2------------------
-------
D:-------------------2--3-2-3-4-5-2-------2-2--------5-3-2-3-4-5-2------
A:------2------2-3---------------------5-2----------------------------------
5-2-
E:-3-5---3-5-------------------------------3--------------------------------
-----3

after 4th verse

G:-----------------------------------------------------------
D:-3-3-2-3-4-5-2-----------------3-2-3-4-5-2-------
A:--------------------5-2----------------------------5-2--
E:--------------------------3-5-5-5----------------------3

G:-------4------2-2--------------------------------------------
D:-2-2----4-2-------5-5-3-2-3-4-5-5-2------------------
A:----------------------------------------------5-2---------2-3
E:---------------------------------------------------3-5-5------

G:---------------------------------4-----2-2-------------------
D:-3-3-2-3-5-5-2--------2-2-----2------5-5-3-2-3-5-2
A:--------------------5-2---------------------------------------
E:-------------------------3-------------------------------------

A little tough at first but easy to pick up on
Comments