Samhain - The Howl Chords & Tabs

 

The Howl Chords & Tabs

Samhain Chords & Tabs

Version: 2 Type: Tab 0 ratings
1 star 2 stars 3 stars 4 stars 5 stars
comments

The Howl Tab

   
Band: Samhain
Song: The Howl

Tabber: John Cukras
Email: riffreaper@yahoo.com

Tuning: Normal

Riff 1:
E------------------
B------------------
G------------------
D-77777777-10101010
A-55555555-8888888-  x's 8
E------------------
[ Tab from: http://www.guitartabs.cc/tabs/s/samhain/the_howl_tab_ver_2.html ]
Riff 2:
E--------------------
B--------------------
G--------------------
D-------5------------
A-6--5--3--6-5-------
E-4--3-----4-3-000000
pm             ......

Riff 1 x's 4

Riff 3:
E----------------------
B----------------------
G----------------------
D-10101010-121212121212
A-8888888--101010101010  x's 4
E----------------------

Riff 1 x's 4

Riff 2

Riff 4:
E--------------------------
B--------------------------
G--------------------------
D-5--6----5--8------------5
A-3--4-6--3--6-8----------3
E------4-------6  x's 10---
Comments