Samhain - The Howl Chords & Tabs

 

The Howl Chords & Tabs

Samhain Chords & Tabs

Version: 1 Type: Tab 0 ratings
1 star 2 stars 3 stars 4 stars 5 stars
comments

The Howl Tab

   
BAND:Samhain
SONG:The Howl
ALBUM:Initium

 
[ Tab from: http://www.guitartabs.cc/tabs/s/samhain/the_howl_tab.html ]
       verse riff 1:
E|-------------------------|-------------------------|
B|-------------------------|-------------------------|
G|-------------------------|-------------------------|
D|--7-----8--7--7--7--8--7-|-10----12-10-10-10-12-10-|
A|--5-----5--5--5--5--5--5-|--8-----8--8--8--8--8--8-|
E|-------------------------|-------------------------|
 |                                                   |
 |                                                   |
G|-------------------------|-------------------------|
D|-12----------12-12-------|-------------10----------|    
A|-------12----------12----|--8--8--8--8-------------|
E|-------------------------|-------------------------|

  verse riff 2:
  This riff has the same rhythm as the first riff, only played two frets
  (one step) higher on the fretboard.

-structure-
 drums...
 riff 1 (2x) (bass only)
 riff 1 (8x)
 G# G  C
 G# G
 riff 1 (4x)
 riff 2 (4x)
 riff 1 (4x)
 G# G  C
 G# G
 guitar over bass playing C:
 C  C# G# C  D# A# (10x)
 C
Comments