Samhain - He Who Cannot Be Named Chords & Tabs

 

He Who Cannot Be Named Chords & Tabs

Samhain Chords & Tabs

Version: 1 Type: Tab 0 ratings
1 star 2 stars 3 stars 4 stars 5 stars
comments

He Who Cannot Be Named Tab

He Who Cannot Be Named

Transcribed by: Look_Upon_Me@yahoo.com

E  :----------------|----------------|----------------|----------------|
B  :----------------|----------------|----------------|----------------|
G  :5-*-5-*-8-*-8-*-|3-*-3-*-5-*-5-*-|5-*-5-*-8-*-8-*-|3-*-3-*-5-*-5-*-|
D  :5---5---8---8---|3---3---5---5---|5---5---8---8---|3---3---5---5---|
A  :3---3---6---6---|1---1---3---3---|3---3---6---6---|1---1---3---3---|
E  :----------------|----------------|----------------|----------------|

E  :----------------|----------------|----------------|----------------|
B  :----------------|----------------|----------------|----------------|
G  :5-*-5-*-8-*-8-*-|3-*-3-*-5-*-5-*-|5-*-5-*-8-*-8-*-|3-*-3-*-5-*-5-*-|
D  :5---5---8---8---|3---3---5---5---|5---5---8---8---|3---3---5---5---|
A  :3---3---6---6---|1---1---3---3---|3---3---6---6---|1---1---3---3---|
E  :----------------|----------------|----------------|----------------|

E  :----------------|----------------|----------------|----------------|
B  :----------------|----------------|----------------|----------------|
G  :5-5-5-5-8-8-8-8-|3-3-3-3-5-5-5-5-|5-5-5-5-8-8-8-8-|3-3-3-3-5-5-5-5-|
D  :5-5-5-5-8-8-8-8-|3-3-3-3-5-5-5-5-|5-5-5-5-8-8-8-8-|3-3-3-3-5-5-5-5-|
A  :3-3-3-3-6-6-6-6-|1-1-1-1-3-3-3-3-|3-3-3-3-6-6-6-6-|1-1-1-1-3-3-3-3-|
E  :----------------|----------------|----------------|----------------|

E  :----------------|----------------|----------------|----------------|
B  :----------------|----------------|----------------|----------------|
G  :5-5-5-5-8-8-8-8-|3-3-3-3-5-5-5-5-|5-5-5-5-8-8-8-8-|3-3-3-3-5-5-5-5-|
D  :5-5-5-5-8-8-8-8-|3-3-3-3-5-5-5-5-|5-5-5-5-8-8-8-8-|3-3-3-3-5-5-5-5-|
A  :3-3-3-3-6-6-6-6-|1-1-1-1-3-3-3-3-|3-3-3-3-6-6-6-6-|1-1-1-1-3-3-3-3-|
E  :----------------|----------------|----------------|----------------|

E  :----------------|----------------|----------------|----------------|
B  :----------------|----------------|----------------|----------------|
G  :5-5-5-5-8-8-8-8-|3-3-3-3-5-5-5-5-|5-5-5-5-8-8-8-8-|3-3-3-3-5-5-5-5-|
D  :5-5-5-5-8-8-8-8-|3-3-3-3-5-5-5-5-|5-5-5-5-8-8-8-8-|3-3-3-3-5-5-5-5-|
A  :3-3-3-3-6-6-6-6-|1-1-1-1-3-3-3-3-|3-3-3-3-6-6-6-6-|1-1-1-1-3-3-3-3-|
E  :----------------|----------------|----------------|----------------|

E  :----------------|----------------|----------------|----------------|
B  :----------------|----------------|----------------|----------------|
G  :5-5-5-5-8-8-8-8-|3-3-3-3-5-5-5-5-|5-5-5-5-8-8-8-8-|3-3-3-3-5-5-5-5-|
D  :5-5-5-5-8-8-8-8-|3-3-3-3-5-5-5-5-|5-5-5-5-8-8-8-8-|3-3-3-3-5-5-5-5-|
A  :3-3-3-3-6-6-6-6-|1-1-1-1-3-3-3-3-|3-3-3-3-6-6-6-6-|1-1-1-1-3-3-3-3-|
E  :----------------|----------------|----------------|----------------|

E  :----------------|----------------|----------------|----------------|
B  :----------------|----------------|----------------|----------------|
G  :3-3-3-3-3-3-3-3-|3-3-3-3-3-3-3-3-|5---5-8---8-8---|5---5-8---8-8---|
D  :3-3-3-3-3-3-3-3-|3-3-3-3-3-3-3-3-|5---5-8---8-8---|5---5-8---8-8---|
A  :1-1-1-1-1-1-1-1-|1-1-1-1-1-1-1-1-|3---3-6---6-6---|3---3-6---6-6---|
E  :----------------|----------------|----------------|----------------|

E  :----------------|----------------|----------------|----------------|
B  :----------------|----------------|----------------|----------------|
G  :3-3-3-3-3-3-3-3-|3-3-3-3-3-3-3-3-|5---5-8---8-8---|5---5-8---8-8---|
D  :3-3-3-3-3-3-3-3-|3-3-3-3-3-3-3-3-|5---5-8---8-8---|5---5-8---8-8---|
A  :1-1-1-1-1-1-1-1-|1-1-1-1-1-1-1-1-|3---3-6---6-6---|3---3-6---6-6---|
E  :----------------|----------------|----------------|----------------|
[ Tab from: http://www.guitartabs.cc/tabs/s/samhain/he_who_cannot_be_named_tab.html ]
E  :----------------|----------------|----------------|----------------|
B  :----------------|----------------|----------------|----------------|
G  :5---------------|5-*-5-*-8-*-8-*-|3-*-3-*-5-*-5-*-|5-*-5-*-8-*-8-*-|
D  :5---------------|5---5---8---8---|3---3---5---5---|5---5---8---8---|
A  :3---------------|3---3---6---6---|1---1---3---3---|3---3---6---6---|
E  :----------------|----------------|----------------|----------------|

E  :----------------|----------------|----------------|----------------|
B  :----------------|----------------|----------------|----------------|
G  :3-*-3-*-5-*-5-*-|5-*-5-*-8-*-8-*-|3-*-3-*-5-*-5-*-|5-*-5-*-8-*-8-*-|
D  :3---3---5---5---|5---5---8---8---|3---3---5---5---|5---5---8---8---|
A  :1---1---3---3---|3---3---6---6---|1---1---3---3---|3---3---6---6---|
E  :----------------|----------------|----------------|----------------|

E  :----------------|----------------|----------------|----------------|
B  :----------------|----------------|----------------|----------------|
G  :3-*-3-*-5-*-5-*-|5-5-5-5-8-8-8-8-|3-3-3-3-5-5-5-5-|5-5-5-5-8-8-8-8-|
D  :3---3---5---5---|5-5-5-5-8-8-8-8-|3-3-3-3-5-5-5-5-|5-5-5-5-8-8-8-8-|
A  :1---1---3---3---|3-3-3-3-6-6-6-6-|1-1-1-1-3-3-3-3-|3-3-3-3-6-6-6-6-|
E  :----------------|----------------|----------------|----------------|

E  :----------------|----------------|----------------|----------------|
B  :----------------|----------------|----------------|----------------|
G  :3-3-3-3-5-5-5-5-|5-5-5-5-8-8-8-8-|3-3-3-3-5-5-5-5-|5-5-5-5-8-8-8-8-|
D  :3-3-3-3-5-5-5-5-|5-5-5-5-8-8-8-8-|3-3-3-3-5-5-5-5-|5-5-5-5-8-8-8-8-|
A  :1-1-1-1-3-3-3-3-|3-3-3-3-6-6-6-6-|1-1-1-1-3-3-3-3-|3-3-3-3-6-6-6-6-|
E  :----------------|----------------|----------------|----------------|

E  :----------------|----------------|----------------|----------------|
B  :----------------|----------------|----------------|----------------|
G  :3-3-3-3-5-5-5-5-|5-5-5-5-8-8-8-8-|3-3-3-3-5-5-5-5-|5-5-5-5-8-8-8-8-|
D  :3-3-3-3-5-5-5-5-|5-5-5-5-8-8-8-8-|3-3-3-3-5-5-5-5-|5-5-5-5-8-8-8-8-|
A  :1-1-1-1-3-3-3-3-|3-3-3-3-6-6-6-6-|1-1-1-1-3-3-3-3-|3-3-3-3-6-6-6-6-|
E  :----------------|----------------|----------------|----------------|

E  :----------------|----------------|----------------|----------------|
B  :----------------|----------------|----------------|----------------|
G  :3-3-3-3-5-5-5-5-|5-*-5-*-8-*-8-*-|3-*-3-*-5-*-5-*-|5-*-5-*-8-*-8-*-|
D  :3-3-3-3-5-5-5-5-|5---5---8---8---|3---3---5---5---|5---5---8---8---|
A  :1-1-1-1-3-3-3-3-|3---3---6---6---|1---1---3---3---|3---3---6---6---|
E  :----------------|----------------|----------------|----------------|

E  :----------------|----------------|----------------|----------------|
B  :----------------|----------------|----------------|----------------|
G  :3-*-3-*-5-*-5-*-|5-*-5-*-8-*-8-*-|3-*-3-*-5-*-5-*-|5-*-5-*-8-*-8-*-|
D  :3---3---5---5---|5---5---8---8---|3---3---5---5---|5---5---8---8---|
A  :1---1---3---3---|3---3---6---6---|1---1---3---3---|3---3---6---6---|
E  :----------------|----------------|----------------|----------------|

E  :----------------|----------------|----------------|----------------|
B  :----------------|----------------|----------------|----------------|
G  :3-*-3-*-5-*-5-*-|5-*-5-*-8-*-8-*-|3-*-3-*-5-*-5-*-|5-*-5-*-8-*-8-*-|
D  :3---3---5---5---|5---5---8---8---|3---3---5---5---|5---5---8---8---|
A  :1---1---3---3---|3---3---6---6---|1---1---3---3---|3---3---6---6---|
E  :----------------|----------------|----------------|----------------|

E  :----------------|----------------|----------------|----------------|
B  :----------------|----------------|----------------|----------------|
G  :3-*-3-*-5-*-5-*-|5-*-5-*-8-*-8-*-|3-*-3-*-5-*-5-*-|5-*-5-*-8-*-8-*-|
D  :3---3---5---5---|5---5---8---8---|3---3---5---5---|5---5---8---8---|
A  :1---1---3---3---|3---3---6---6---|1---1---3---3---|3---3---6---6---|
E  :----------------|----------------|----------------|----------------|

E  :----------------|
B  :----------------|
G  :3-*-3-*-5-*-5-*-|
D  :3---3---5---5---|
A  :1---1---3---3---|
E  :----------------|
Comments