Samhain - Halloween 2 Chords & Tabs

 

Halloween 2 Chords & Tabs

Samhain Chords & Tabs

Version: 1 Type: Tab 0 ratings
1 star 2 stars 3 stars 4 stars 5 stars
comments

Halloween 2 Tab

Artist: Samhain
Song: Halloween 2

Verse Riff (Play throughout verse)
E---------------|
B---------------|
G---------------|
D---------------|
A------3------5-|
E--5-5---5-3----|
pm * *   * *
[ Tab from: http://www.guitartabs.cc/tabs/s/samhain/halloween_2_tab.html ]
Bridge
E-----------------------|
B-----------------------|
G-----------------------|
D--9--9-9--10--9-9-9-10-|
A--x--x-x--10--x-x-x-10-|
E--7--7-7--8---7-7-7-8--|

Chorus
E--------------|
B--------------|
G--------------|
D--7-----5-----|
A--7-----5-----|
E--5-----3-----|

Song Structure
1. Verse
2. Bridge (x8)
3. Verse
4. Bridge (x8)
5. Chorus (x6)
6. Verse
7. Chorus (x4)
8. Bridge (x8)
Comments