Samhain - Die Die My Darling Chords & Tabs

 

Die Die My Darling Chords & Tabs

Samhain Chords & Tabs

Version: 1 Type: Tab 0 ratings
1 star 2 stars 3 stars 4 stars 5 stars
comments

Die Die My Darling Tab

DIE DIE MY DARLING

E-Mail Pizzazo099@aol.com
www.TheInnocentDead.Tk

intro 
|-x--x--x--x--x--x--x--x---|--/x-x-xxx-|--/x-x-xxx-|
|-x--x--x--x--x--x--x--x---|--/x-x-xxx-|--/x-x-xxx-|
|-x--x--x--x--x--x--x--x---|--/x-x-xxx-|--/x-x-xxx-|
|-8--8--8--8--8--8--8--8---|--/4-4-444-|--/3-3-333-|
|-8--8--8--8--8--8--8--8---|--/4-4-444-|--/3-3-333-|
|-6--6--6--6--6--6--6--6---|--/2-2-222-|--/1-1-111-|

verse
|-x--x--x--x--x--x--x--x---|--x-x-xxxx-|--x-x-xxxx-|
|-x--x--x--x--x--x--x--x---|--x-x-xxxx-|--x-x-xxxx-|
|-x--x--x--x--x--x--x--x---|--x-x-xxxx-|--x-x-xxxx-|
|-8--8--8--8--8--8--8--8---|--4-4-4444-|--3-3-3333-|
|-8--8--8--8--8--8--8--8---|--4-4-4444-|--3-3-3333-|
|-6--6--6--6--6--6--6--6---|--2-2-2222-|--1-1-1111-|

middle
|--x-----------|--x-----------|--x-----------|--x-----------|
|--x-----------|--x-----------|--x-----------|--x-----------|
|--8-----------|--8-----------|--x-----------|--x-----------|
|--8-----------|--8-----------|--8-----------|--8-----------|
|--6-----------|--6-----------|--8-----------|--8-----------|
|--x-----------|--x-----------|--6-----------|--6-----------|
[ Tab from: http://www.guitartabs.cc/tabs/s/samhain/die_die_my_darling_tab.html ]
|--x-----------|--x-----------|--xxxxxx---|
|--x-----------|--x-----------|--xxxxxx---|  
|--8-----------|--8-----------|--333333---|   
|--8-----------|--8-----------|--333333-3-|   
|--6-----------|--6-----------|--111111-3-|   
|--x-----------|--x-----------|--xxxxxx-1-|
PM                               ......

chorus                                
|-x-x-x-x-x-x-x-x-x-x-x-x-x-x-x-x-|-xxxxxxxx-|-xxxx-xxxx-|
|-x-x-x-x-x-x-x-x-x-x-x-x-x-x-x-x-|-xxxxxxxx-|-xxxx-xxxx-|
|-3-3-3-3-3-3-3-3-3-3-3-3-3-3-3-3-|-xxxxxxxx-|-6666-5555-|
|-3-3-3-3-3-3-3-3-3-3-3-3-3-3-3-3-|-44444444-|-6666-5555-|
|-1-1-1-1-1-1-1-1-1-1-1-1-1-1-1-1-|-44444444-|-4444-3333-|
|-x-x-x-x-x-x-x-x-x-x-x-x-x-x-x-x-|-22222222-|-xxxx-xxxx-|

outro
|-x-x-x-x-x-x-x-x--x-|-x---x---x-|-x---x---x-|-x---x---x--|
|-x-x-x-x-x-x-x-x--x-|-x---x---x-|-x---x---x-|-x---x---x--|
|-x-x-x-x-x-x-x-x--x-|-8---8---8-|-8---8---8-|-8---8---8b-|
|-8-8-8-8-8-8-8-8--8-|-6---6---6-|-6---6---6-|-6---6---6b-|
|-8-8-8-8-8-8-8-8--8-|-6---6---6-|-6---6---6-|-6---6---6b-|
|-6-6-6-6-6-6-6-6--6-|-x---x---x-|-x---x---x-|-x---x---x--|

intro  x2
verse  x2
middle x1
chorus x3
verse  x2
middle x1 
chorus x3
middle x1 
outro  x1
Comments