Samhain - Archangel Chords & Tabs

 

Archangel Chords & Tabs

Samhain Chords & Tabs

Version: 1 Type: Tab 1 rating
1 star 2 stars 3 stars 4 stars 5 stars
comments

Archangel Tab

Band: Samhain
Song: Archangel

tabber: John Cukras
Email: riffreaper@yahoo.com

Tuning: Normal

Riff 1:
E--------------------------
B--------------------------
G--------------------------
D-7-------7------7-----2--7
A-5-------5------5--7--2--5
E-------------------5--0--- x's 2

Riff 2:
E--------------
B--------------
G--------------
D-7---4---5---7
A-5---2---3---5
E--------------  x's 2

Riff 1 x's 6

Riff 2 x's 2

Riff 1 x's 4
[ Tab from: http://www.guitartabs.cc/tabs/s/samhain/archangel_tab.html ]
Riff 2 x's 2

Riff 1 x's 2

Riff 3:
E--------------------------------
B--------------------------------
G--------------------------------
D-------77777--------------------
A-55555-55555--------------777777
E-33333-------x's 3 then --555555

Riff 1 till end.

Outro: Trem pick, switches periodically.
E------------------------
B------------------------
G----------------------14 
D-12-13--12-13--12-13----
A------------------------
E------------------------
Comments