Samhain - Archangel Chords & Tabs

 

Archangel Chords & Tabs

Samhain Chords & Tabs

Version: 1 Type: Bass Tab 0 ratings
1 star 2 stars 3 stars 4 stars 5 stars
comments

Archangel Bass Tab

Samhain
Archangel
Tabbed by: Keith McLamb
Email: br0kenself@godisdead.com
I'm almost positive that this is perfect.

INTRO
G:-----------------------------------------------
D:-----------------------------------------------
A:----5------5------5--------5----5---------5----
E:---------------------7--8-----------7--8-------
[ Tab from: http://www.guitartabs.cc/tabs/s/samhain/archangel_btab.html ]
PART I
G:------------------
D:------------------
A:---5-------7---5--
E:-------5----------

PART II
G:---------------
D:---------------
A:---5--------5--
E:------7--8-----

PART III
G:---------
D:--5------
A:-------5-
E:---------


Intro
PART I    6x
PART II   2x
PART I    4x
PART II   2x
PART I    4x
PART III  3x
PART I    Repeat 'til End.
Comments