Sambora Richie - You're Not Alone Chords & Tabs

 

You're Not Alone Chords & Tabs

Sambora Richie Chords & Tabs

Version: 1 Type: Chords 0 ratings
1 star 2 stars 3 stars 4 stars 5 stars
comments

You're Not Alone Chords

   
##################################################################################
# This file is the author's own work and represents their interpretation of the  #
# song. You may only use this file for private study, scholarship, or research.  #
##################################################################################

You're Not Alone
Richie Sambora
(R.Sambora/T.Marolda)
Transcribed By TROOBIX

C-X32010
G-320022
F-133211
E-022100
D#-X65343
Am-X02210
A#m-688666

Most of this song is repeated so I will just include the main bits
[ Tab from: http://www.guitartabs.cc/tabs/s/sambora_richie/youre_not_alone_crd.html ]
Intro Riff
------0------------------|----------------------------|
--------1--------3-------|---------1------------------|
---0---------3-------3---|-----1------1--1--/s--3-----|
-------------------------|----------------------------|
3---------1--------------|--3-------------------------|
-------------------------|----------------------------|

Drum Bit

Intro Chords + Solo:CFAmCX2
-------------------------|----------------------------|----------------------------
-------------------------|----------------------------|----------------------------
-11bu12bd11----9---10----|------7-----9-7-------------|-7------9--7----------------
----------------------10-|-7-10---10------7-10-7-10---|----10----------------------
-------------------------|----------------------------|----------------------------
-------------------------|----------------------------|----------------------------

Verse:GCFGCF
CFEAmFG


Chorus: 
CFAmC (THIS CHORD IS NOT RIGHT)
CFAmE
AmGFE
GC

Bridge:
D#A#mFC
D#A#mFG


Troobix 1998
Comments