Sambora Richie - All That Really Matters Chords & Tabs

 

All That Really Matters Chords & Tabs

Sambora Richie Chords & Tabs

Version: 1 Type: Chords 0 ratings
1 star 2 stars 3 stars 4 stars 5 stars
comments

All That Really Matters Chords

   
##################################################################################
# This file is the author's own work and represents their interpretation of the  #
# song. You may only use this file for private study, scholarship, or research.  #
##################################################################################

All that Really Matters
Richie Sambora
(R.Sambora/R.Supa)
Transcribed By TROOBIX

C-x32010
G-320022
F-133200
Em-022000
D-XX0232
D#-X65343
Bm-X24232
Dsus4-XX0233
EmMaj7-021000
Em7-020000


This is really a piano song but this is what I got I think it is close

Most of this song is repeated so I will just include the main bits
[ Tab from: http://www.guitartabs.cc/tabs/s/sambora_richie/all_that_really_matters_crd.html ]
PIANO RIFF
-------------------------|
-------------------------|
------------0------------|
--------0----------------|
--2--3-------------------|
-------------------------|


INTRO:  CGFEmD

Verse:CGCGRIFFCFEmGX2


Chorus: 
GBmCG
GBmCDEm
GBmCDEmDsus4D
 IS NOT PLAYED WHEN THE BRIDGE IS PLAYED

Bridge:
CGBmEmEmMaj7Em7
CDD#GEmFDC

THE SLOW RIFF THAT GOES OVER THAT IS SOMETHING LIKE

-------------------------|----------------------------|
-------------------------|----------------------------|
---0---------------------|----------------------------|
--------4--2---1----0----|------0----1------0---------|
-------------------------|---3------------------------|
-------------------------|----------------------------|


THE CHORDS FOR THE SOLO ARE THE SAME AS THE VERSE

Troobix 1998
Comments