Sam The Sham - Little Red Riding Hood Chords & Tabs

 

Little Red Riding Hood Chords & Tabs

Sam The Sham Chords & Tabs

Version: 1 Type: Bass Tab 0 ratings
1 star 2 stars 3 stars 4 stars 5 stars
comments

Little Red Riding Hood Bass Tab

 Sam The Sham "Little Red Riding Hood"
 This is for fun.

 Intro:
G|-0-------0------0----|
D|---4-2-----4-2----4--|
A|---------------------|
E|---------------------|

[ Tab from: http://www.guitartabs.cc/tabs/s/sam_the_sham/little_red_riding_hood_btab.html ]
 Verse:
G|----0--2--2--5--4-----4-4-|
D|-2----0--2--2--5-4-2-----|
A|--2-----------------2----|
E|-------------------------|


 Bridge Verse:
G|-0-0-0-------0-2-2-4-7---|
D|--0---4-2-2-2---2-----7--|
A|---------2---------------|
E|-------------------------|

Tab'd by Nyte (Nytethorn@aol.com)

Comments