Sam The Butcher - Let You Down Chords & Tabs

 

Let You Down Chords & Tabs

Sam The Butcher Chords & Tabs

Version: 1 Type: Tab 0 ratings
1 star 2 stars 3 stars 4 stars 5 stars
comments

Let You Down Tab

   
------------------------------------------------------------------------------- 
LET YOU DOWN - Sam The Butcher
------------------------------------------------------------------------------- 

By: vinny withtenpoundballs Manzoooooo@aol.com 

e|-------------------| 
B|-------------------| 
G|-------9---7-------| 
D|---7---9---7---5---| 
A|---7---7---5---5---| 
E|---5-----------3---| 
A E D G 

Verse: A A A A E E E E D D D D G G G G 

Chorus: A A E E E E A A G G G G 

2nd guitar appregiates the first guitar: (palm muted) 
e|----------------------------------------------------------| 
B|----------------------------------------------------------| 
G|----------------------------------------------------------| 
D|--------------------9-----9------7-----7------------------| 
A|-------7-----7--7-7---7-7----5-5---5-5--------5-----5-----| 
E|---5-5---5-5------------------------------3-3---3-3-------| 
[ Tab from: http://www.guitartabs.cc/tabs/s/sam_the_butcher/let_you_down_tab.html ]
Solo: 
e|---------------------------------------------------| 
B|---------------------------------------------------| 
G|---------------------------------------------------| 
D|--7----7-------------------------------------------| 
A|------------------4-5-7--7-7-5-5-4--5-5-4-45-4--2--| 
E|--------------5-5----------------------------------| 

e|-------------------------------------------------| 
B|-------------------------------------------------| 
G|-------------------------------------------------| 
D|--------------------6-7-9--9-9-9--7-7-6----------| 
A|--------4-5-7-7-7-7---------------------7--------| 
E|--5-5-5------------------------------------------| 

e|-------------------------------------------------| 
B|-------------------------------------------------| 
G|-------------------------------------------------| 
D|-----7-7-6--4-6-4--------------------------------| 
A|--7---------------7-7-7-5-5-5-5-7-9-7------------| 
E|-------------------------------------------------| 

e|-------------------------------------------------| 
B|-------------------------------------------------| 
G|-------------------------------------------------| 
D|-------------------------------------------------| 
A|------4-5-7--7-7--5-5--4--5-5--4-4--2--0---------| 
E|--5-5--------------------------------------------| 

Ends with A 

===============================================================================
Comments