Sam Roberts - Uprising Down Under Chords & Tabs

 

Uprising Down Under Chords & Tabs

Sam Roberts Chords & Tabs

Version: 2 Type: Tab

Uprising Down Under Tab

   
----------------------------------------------------------------------------
			     UPRISING DOWN UNDER - Sam Roberts
----------------------------------------------------------------------------
Tabbed by: Rob
Email:some_wacko@hotmail.com

Tuning: Standard

I couldn't find this tab when the album came out, and I see there is one now but it's a 
off. I saw his concert in Barrie and watched closely. After playing around for a while I 
the chords he uses. This is also my first tab submitted so rate it for me!

Intro:
[ Tab from: http://www.guitartabs.cc/tabs/s/sam_roberts/uprising_down_under_tab_ver_2.html ]
e:-0---0-0-0-0-0---0-0-0-0-0---0-0-0-0-0---0--0--|
B:-5---5-5-5-5-5---5-5-5-5-7---7-7-7-7-7---7--7--|
G:-6---6-6-6-6-6---6-6-6-6-6---6-6-6-6-6h7-6--6--|   Repeat
D:-7---7-7-7-7-7---7-7-7-7-0---0-0-0-0-0---0--0--|
A:-0-------0---0-------0-------------------------|
E:-----------------------------------------------|


Chorus:
                           E
e:-0---0-0-0-0-0---0-0-0-0-0---0-0-0-0---0-0-0-0-0-0-|
B:-5---5-5-5-5-5---5-5-5-5-0---0-0-0-0---7-7-7-7-7-7-|
G:-6---6-6-6-6-6---6-6-6-6-1---1-1-1-1---6-6-6-6-6-6-| Repeat
D:-7---7-7-7-7-7---7-7-7-7-2---2-2-2-2---0-0-0-0-0-0-|
A:-0-------0---0-------0---2---2-2-2-2---------------|
E:---------------------------------------------------|

I didn't see how he did the bridge, but the other tab on this site sounds good enough.

Hope this helps