Sam Roberts - Brother Down Chords & Tabs

 

Brother Down Chords & Tabs

Sam Roberts Chords & Tabs

Version: 2 Type: Tab 0 ratings
1 star 2 stars 3 stars 4 stars 5 stars
comments

Brother Down Tab

   
Intro Dm C G x2

Dm
One life to live but we're doing it wrong 
         C                                           G
You see, got my brother down cause it's nothing to me 
Dm
Everyone saying that it's wrong to cheat 
             C                                     G
But there's no other way to get my life on easy street 
Dm
Someone else telling you what you're living for 
          C                                      G
Been knocking you down, now you're looking for more 
Dm
The only sound you hear is a closing door
        C                                         G
Been looking for peace but they're bringing you war
Dm 
Rich man cryin' cause his money's time 
      C                                            G 
And poor man's smilin' cause he knows he ain't blind 
Dm
There's a man over there says he's tougher than me 
   C                                       G
But I got eyes that can see through fantasy 

(Chorus)
Dm           C                  G
I think my life is passing me by 
Dm           C                  G
I think my life is passing me by 
[ Tab from: http://www.guitartabs.cc/tabs/s/sam_roberts/brother_down_tab_ver_2.html ]
2nd Guitar plays this over Dm C G After the chorus
|-----------------------|-------------------------|
|-----------------------|-------------------------|
|--10--9--7---10--9--7--|--4--5--7---4--5--7------|
|-----------------------|-------------------------|
|-----------------------|-------------------------|
|-----------------------|-------------------------|

|-----------------------|--------------------------|
|-----------------------|--------------------------|
|--10--9--7---10--9--7--|--14--12--10---14--12--10-|
|-----------------------|--------------------------|
|-----------------------|--------------------------|
|-----------------------|--------------------------|

(Same as First half)
Take it all back cause it don't mean nothing 
If you give it away and you're looking for something back 
Wake up every morning when there's nothing there 
No reason to die but no reason to care 
Someone else telling you what you're living for 
Been knocking you down now you're looking for more 
The only sound you hear is a closing door 
Been looking for peace but they're bringing you war 
One life to live but we're doing it wrong 
You see, got my brother down cause it's nothing to me 
Rich man cryin' cause his money's time 
And poor man's smilin' cause he knows he ain't blind 

I think my life is passing me by 
I think my life is passing me by 

|-----------------------|-------------------------|
|-----------------------|-------------------------|
|--10--9--7---10--9--7--|--4--5--7---4--5--7------|
|-----------------------|-------------------------|
|-----------------------|-------------------------|
|-----------------------|-------------------------|

|-----------------------|--------------------------|
|-----------------------|--------------------------|
|--10--9--7---10--9--7--|--14--12--10---14--12--10-|
|-----------------------|--------------------------|
|-----------------------|--------------------------|
|-----------------------|--------------------------|
repeat riff several times over Dm C G and fade...
Comments