Salman Ahmed - Mun Gum Sum Chords & Tabs

 

Mun Gum Sum Chords & Tabs

Salman Ahmed Chords & Tabs

Version: 1 Type: Chords 0 ratings
1 star 2 stars 3 stars 4 stars 5 stars
comments

Mun Gum Sum Chords

   
Song - Mun Gum Sum
Album - Infinity (Solo Album From Junoon's Salman Ahmed)
Artist - Salman Ahmed
For more info visit www.junoon.com
Tabbed By Junaid Iqbal
s_junaidjunooni@hotmail.com, junooniessss@yahoo.com

I am not sure of the name of chords in it so I have stated them as Riffs in this song.
listen to Mun Gum Sum(My Cover) on www.soundclick.com/junaid and ull get a fair idea how this is played.

Riff 1.
D --5-5-5-5-5-5-5-5-5-5-----|
A ----------------------5-4-|

Riff 2.
E -------------5-----------|
B -------------------------|
G ---0-----0-----0---------|
D -----4-----4-----4-------|
A -5-----5-----------------|
E -------------------------|

Riff 3.
E ------5------------------|
B --3----------------------|
G 0------------------------| (Hold These Frets and strum them, this is for stumming)
D ----4--------------------|
A ------5------------------|
E -------------------------|

Riff 4.
E -------------------------|
B ---3---------------------|
G -----4-------------------| (Hold these frets, this is for stumming as well)
D -----4-------------------|
A -------------------------|
E -------------------------|
[ Tab from: http://www.guitartabs.cc/tabs/s/salman_ahmed/mun_gum_sum_crd.html ]
Riff 1. (Play this riff behind starting Mun Gum Sum)
Mun Gum Sum, Mun Gum Sum, Mun Gum Mola

Riff 2.(here play riff2, once u go into the mood of the song ull feel how to play it)
Mun Gum Sum Mola
Mun Gum Sum Molaaaa

Riff3. (Strum here)
Mere Liye Tuhe Kafi, Mere Liye Tuhe Kafi
A      Riff3
Bas Tu Mola

Riff3       A            G         Riff3
Dewaron Ki Qaid Mein, Chahon Raz O Niaz

Riff3       A            G         Riff3
Dewaron Ki Qaid Mein, Chahon Raz O Niaz

Riff4      G        A
Azadi Parwaaz Hai, Ishq Bhi Hai Parwaaz

G             A          G   A
Hasti Ka Har Raaz, Tu He Tu Mola

      G  A  G  Riff2
Tu He Tu Mola

Riff3           A           G            Riff3
Husan Uran Ki Lehron Mein Dekho Buland O Past

Riff3           A           G            Riff3
Husan Uran Ki Lehron Mein Dekho Buland O Past

Riff4       A                G          A
Yani Ishq Parast Houn Mein, Yani Ishq Parast

G             A           G  A          G  A  G  Riff2
Raste Ho Sab Mast, Tu He Tu Mola, Tu He Tu Mola
Comments