Salman Ahmad - Al-vida Chords & Tabs

 

Al-vida Chords & Tabs

Salman Ahmad Chords & Tabs

Version: 2 Type: Tab

Al-vida Tab

tabbed by AHMAD guitar player of VIRD
hi guys im spliting up the solo in 4riffs for better understanding

riff#1
E--------------------------------------------|
B--------------------------------------------|
G--------------------------------------------|
D---7-9-7---10-10---5-7---9s12---10-10-------|
A-0-------0-------0-----0------0-------------|
E--------------------------------------------|

riff#2
E----------------------------------------------|
B----------------------------------------------|
G----------------------------------------------|
D---7-9---7-7h10-10-7-9-6-7-6-7-6-7-7---3---2--|
A-0-----0-----------------------------0---0----|
E----------------------------------------------|
[ Tab from: http://www.guitartabs.cc/tabs/s/salman_ahmad/al_vida_tab_ver_2.html ]
riff#3
E-----------------------------------------------------------|
B-------------------------------15----15----15----15--------|
G-----------------------------------------------------------|
D---7-9-7-7h10-10-9-10s12-12-12----12----12----12------12---|
A-0---------------------------------------------------------|
E-----------------------------------------------------------|

riff#3
E--------------------------------------------|
B--------------------------------------------|
G--------------------------------------------|
D---7-9---7-7h10-10-10---9---7---6---3---2---|
A-0-----0--------------0---0---0---0---0-----|
E--------------------------------------------|

JUNOON Kicks ass... play with the feel and there u have it!!!
questions and comments u r welcome
durtyguitar@yahoo.com