Saliva - Your Disease Chords & Tabs

 

Your Disease Chords & Tabs

Saliva Chords & Tabs

Version: 8 Type: Tab 0 ratings
1 star 2 stars 3 stars 4 stars 5 stars
comments

Your Disease Tab

   
Your Disease-Saliva
Every Six Seconds

Drop Db
Db Ab Db Gb Bb Eb

Intro:

e-----------------------------------------------------------------
b-----------------------------------------------------------------
g-6-6-6-6-6-6-6-6-6b6b6b6b6b6b6b6b6-6-6-6-6-6-6-6-6-6b6b6b6b6b6b6b
d-0-0-0-0-0-0-0-0-0-0-0-0-0-0-0-0-0-0-0-0-0-0-0-0-0-0-0-0-0-0-0-0-
a-----------------------------------------------------------------
d-----------------------------------------------------------------

e-----------------------------------------------------------------
b-------------3---------------------------3-----------------------
g-------------2---------------------------2-----------------------
d-------------0---------------------------0-----------------------
a-5br-3-5-3-0-0---------0-3-5-5br-3-5-3-0-0---------0-3-5---------
d-5br-3-5-3-0-0---------0-3-5-5br-3-5-3-0-0---------0-3-5---------

e-----------------------------------------------------------------
b-------------3---------------------------3-----------------------
g-------------2---------------------------2-----------------------
d-------------0---------------------------0-----------------------
a-5br-3-5-3-0-0---------0-3-5-5br-3-5-3-0-0-----------------------
d-5br-3-5-3-0-0---------0-3-5-5br-3-5-3-0-0-----------------------

Verses:

e-----------------------------------------------------------------
b-----------------------------------------------------------------
g-----------------------------------------------------------------
d-----------------------------------------------------------------
a-0--3-0-3-5---6--6-6-6-6-5-5-6-0--3-0-3-5---6--6-6-6-6-5-5-6-----
d-0--3-0-3-5---6--6-6-6-6-5-5-6-0--3-0-3-5---6--6-6-6-6-5-5-6-----

Chorus:
[ Tab from: http://www.guitartabs.cc/tabs/s/saliva/your_disease_tab_ver_8.html ]
e-0--0--0--0-0---0-0--0-0-0-0--0--0--0--0-0--0-0--0-0-0-0---------
b-3--3--3--3-3---3-3--3-3-3-3--1--1--1--1-1--1-1--1-1-1-1---------
g-2--2--2--2-2---2-2--2-2-2-2--0--0--0--0-0--0-0--0-0-0-0---------
d-0--0--0--0-0---0-0--0-0-0-0--2--2--2--2-2--2-2--2-2-2-2---------
a------------------------------3--3--3--3-3--3-3--3-3-3-3---------
d-----------------------------------------------------------------

e-----------------------------------------------------------------
b-3--3--3--3-3---3-3--3-3-3-3--1--1--1--1-1-----------------------
g-3--3--3--3-3---3-3--3-3-3-3--0--0--0--0-0-----------------------
d-3--3--3--3-3---3-3--3-3-3-3--2--2--2--2-2-----------------------
a-1--1--1--1-1---1-1--1-1-1-1--3--3--3--3-3---3-5-3-5-3-----------
d-------------------------------------------------------3b--------

Before Bridge:

e-8----------------------------------------------------10---------
b-----8----7-----------7br-----7-7b-r-b-r-----------10-----10-----
g--------------------------------------------------------------12-
d-----------------------------------------------------------------
a-----------------------------------------------------------------
d-----------------------------------------------------------------

Bridge:

Gtr 1. 

e-----------------------------------------------------------------
b-----------------------------------------------------------------
g-7--7--7--711--1111--11111111--9--9--9--911--1111--11111111------
d-x--x--x--x-x---x-x---x-x-x-x--x--x--x--x-x---x-x---x-x-x-x------
a-5--5--5--5-9---9-9---9-9-9-9--7--7--7--7-9---9-9---9-9-9-9------
d-----------------------------------------------------------------

Gtr 2.

e-3--3--3--3-3---3-3---3-3-3-3------------------------------------
b-3--3--3--3-3---3-3---3-3-3-3--2--2--2--2-2---2-2---2-2-2-2------
g-0--0--0--0-0---0-0---0-0-0-0--2--2--2--2-2---2-2---2-2-2-2------
d-0--0--0--0-0---0-0---0-0-0-0--2--2--2--2-2---2-2---2-2-2-2------
a-x--x--x--x-x---x-x---x-x-x-x--0--0--0--0-0---0-0---0-0-0-0------
d-5--5--5--5-5---5-5---5-5-5-5------------------------------------


thatís all

trevor jones
timmy91199@yahoo.ca
Comments