Saliva - Your Disease Chords & Tabs

 

Your Disease Chords & Tabs

Saliva Chords & Tabs

Version: 7 Type: Tab 0 ratings
1 star 2 stars 3 stars 4 stars 5 stars
comments

Your Disease Tab

   
#----------------------------------PLEASE NOTE---------------------------------#
#This file is the author's own work and represents their interpretation of the #
#song. You may only use this file for private study, scholarship, or research. #
#------------------------------------------------------------------------------#
#------------------------------------------------------------------------------#

Title: Your Disease
Artist: Saliva
Album: Every 6 Seconds

Tabbed by: Jason (Jiwalnos@aol.com)

Tuning: Dropped D (D A D G B E)



Intro

E|----------------||
B|----------------||
G|-5--6-----------||
D|-4--4-----------||
A|----------------||
D|----------------||

verse 1

E|-------------------------------------------------------------------------||
B|-------------------------------------------------------------------------||
G|----------------------6-6------------------------------------------------||
D|-4h^5--4^h0--4^h0--0--6-6--0--4^h0---------------------------------------||
A|-4h^5--4^h0--4^h0--0--4-4--0--4^h0---------------------------------------||
D|-4h^5--4^h0--4^h0--0-------0--4^h0---------------------------------------||

verse 2

[ Tab from: http://www.guitartabs.cc/tabs/s/saliva/your_disease_tab_ver_7.html ]
E|-------------------------------------------------------------------||
B|-------------------------------------------------------------------||
G|-------------------------------------------------------------------||
D|0--2^h0--2h^3--5--5--5--5--5--4h^5---------------------------------||
A|0--2^h0--2h^3--5--5--5--5--5--4h^5---------------------------------||
D|0--2^h0--2h^3--5--5--5--5--5--4h^5---------------------------------||

chorus


E|--------------------------------------------------||
B|--------------------------------------------------||
G|-6--4--2--4---------------------------------------||
D|-6--4--2--4---------------------------------------||
A|-4--2--0--2---------------------------------------||
D|--------------------------------------------------||

interlude 

part 1

E|----------------------------------------------------------------9||
B|-----------------------------------------------------------------||
G|-16--11--10--10^h11--10--10^h11--10--16--11--10--10^11--10--11---||
D|-----------------------------------------------------------------||
A|-----------------------------------------------------------------||
D|-----------------------------------------------------------------||

part 2


E|--------------------------------------------------||
B|--------------------------------------------------||
G|-6--5-----------------------------------------------||
D|-4--3-----------------------------------------------||
A|--------------------------------------------------||
D|--------------------------------------------------||

Comments