Saliva - Your Disease Chords & Tabs

 

Your Disease Chords & Tabs

Saliva Chords & Tabs

Version: 5 Type: Tab 1 rating
1 star 2 stars 3 stars 4 stars 5 stars
comments

Your Disease Tab

Tuning: Drop D and Half a Step Down

~: Vibrato
h: Hammer on
p: Pull off
/: Slide UP
Intro:
eb|---9-9-9-9-9-9-9-9--10-10-10-10-10-10-10-10----|  
bb|---------------------------------------------o-| Four Times
gb|---6-6-6-6-6-6-6-6--7--7--7--7--7--7--7--7-----|  
db|-----------------------------------------------| 
ab|---------------------------------------------o-|
Db|-----------------------------------------------|

		  HUH!
PreVerse:
eb|--------------------------------|
bb|--------------------------------|  
gb|--------------------------------|
db|---5-5-5-5-3-0-0--0-0---0-3-5---|  Four Times
ab|---5-5-5-5-3-0-0--0-0---0-3-5---|
Db|---5-5-5-5-3-0-0--0-0---0-3-5---|

Verse:
eb|-------------------------------------|
bb|-------------------------------------|
gb|-------------------------------------|
db|---0--3--0--3--5---6-6-6--5-5--3-3---|
ab|---0--3--0--3--5---6-6-6--5-5--3-3---|
Db|---0--3--0--3--5---6-6-6--5-5--3-3---|
[ Tab from: http://www.guitartabs.cc/tabs/s/saliva/your_disease_tab_ver_5.html ]
Chorus:
eb|---------------------------------------------------------------------------|
bb|---------------------------------------------------------------------------|
gb|---7-7-7-7-7-7-7-7---5-5-5-5-5-5-5-5---------------------5-5-5-5-5-5-5-5---|
db|---7-7-7-7-7-7-7-7---5-5-5-5-5-5-5-5---8-8-8-8-8-8-8-8---5-5-5-5-5-5-5-5---|
ab|---5-5-5-5-5-5-5-5---3-3-3-3-3-3-3-3---8-8-8-8-8-8-8-8---3-3-3-3-3-3-3-3---|
Db|---------------------------------------8-8-8-8-8-8-8-8---------------------|

Solo:
eb|---8------------------------------8-------------------------10--|
bb|-----8--7~~--7h8p7~~--7h8p7h8p7~~----8--7~~--7h8p7~~--8/10------|
gb|----------------------------------------------------------------|
db|----------------------------------------------------------------|
ab|----------------------------------------------------------------|
Db|----------------------------------------------------------------|

Bridge:
eb|---10-10-10-10-14-14-14-14-9--9--9--9---|
bb|----------------------------------------|
gb|---7--7--7--7--11-11-11-11-6--6--6--6---|
db|----------------------------------------|
ab|----------------------------------------|
Db|----------------------------------------|

Comments