Saliva - Your Disease Chords & Tabs

 

Your Disease Chords & Tabs

Saliva Chords & Tabs

Version: 4 Type: Tab 1 rating
1 star 2 stars 3 stars 4 stars 5 stars
comments

Your Disease Tab

		    Your Disease" By Saliva

*Tuning: Drop D        
	 1/2 Step Down

Intro:
eb|---9-9-9-9-9-9-9-9--10-10-10-10-10-10-10-10----|  
bb|-----------------------------------------------|  Played
gb|---6-6-6-6-6-6-6-6--7--7--7--7--7--7--7--7-----|  
db|-----------------------------------------------|  Four Times
ab|-----------------------------------------------|
Db|-----------------------------------------------|

		  [ Huh! ]
PreVerse:
eb|----------------------------------------|
bb|----------------------------------------|  Played
gb|----------------------------------------|
db|---5-5^-5-3-5-3-0-0---0-0---0---0-3-5---|  Four Times
ab|---5-5^-5-3-5-3-0-0---0-0---0---0-3-5---|
Db|---5-5^-5-3-5-3-0-0---0-0---0---0-3-5---|

Verse:
eb|-------------------------------------|
bb|-------------------------------------|
gb|-------------------------------------|
db|---0--3--0--3--5---6-6-6--5-5--3-3---|
ab|---0--3--0--3--5---6-6-6--5-5--3-3---|
Db|---0--3--0--3--5---6-6-6--5-5--3-3---|
[ Tab from: http://www.guitartabs.cc/tabs/s/saliva/your_disease_tab_ver_4.html ]
Chorus:
eb|---5-5-5-5-5-5-5-5---3-3-3-3-3-3-3-3---------------------3-3-3-3-3-3-3-3---|
bb|---5-5-5-5-5-5-5-5---3-3-3-3-3-3-3-3---------------------3-3-3-3-3-3-3-3---|
gb|---7-7-7-7-7-7-7-7---5-5-5-5-5-5-5-5---------------------5-5-5-5-5-5-5-5---|
db|---7-7-7-7-7-7-7-7---5-5-5-5-5-5-5-5---8-8-8-8-8-8-8-8---5-5-5-5-5-5-5-5---|
ab|---5-5-5-5-5-5-5-5---3-3-3-3-3-3-3-3---8-8-8-8-8-8-8-8---3-3-3-3-3-3-3-3---|
Db|---------------------------------------8-8-8-8-8-8-8-8---------------------|

Short Solo Before Bridge:
eb|---7------------------------------7----------------------9---|
bb|-----8--6~~--6h8p6~~--6h8p6h8p6~~----8--6~~--6h8p6~~--/9-----|
gb|-------------------------------------------------------------|
db|-------------------------------------------------------------|
ab|-------------------------------------------------------------|
Db|-------------------------------------------------------------|

Bridge:
eb|---10-10-10-10-14-14-14-14-9--9--9--9---|
bb|----------------------------------------|
gb|---7--7--7--7--11-11-11-11-6--6--6--6---|
db|----------------------------------------|
ab|----------------------------------------|
Db|----------------------------------------|


Intro
PreVerse
Verse
Chorus
Intro
Verse
Chorus
Short Solo
Bridge
Chorus
Chorus


Aight - this song is tight, no question.  It's really easy to play, but make
sure you drop the 1/2 step, or it won't sound right.  E-mail me if you have comments
or nude photos of that cute little brunette next door, but otherwise don't.  
If you have corrections, then tab the song & put it on the net. (Virii_116@Hotmail.com)
[Poor Andy is Pimp]                         -Sean Rippen-



Comments