Saliva - Your Disease Chords & Tabs

 

Your Disease Chords & Tabs

Saliva Chords & Tabs

Version: 1 Type: Tab 1 rating
1 star 2 stars 3 stars 4 stars 5 stars
comments

Your Disease Tab

   
Tabbed by: chuck barnett metlhed02@aol.com
Song: Your Disease
Band: Saliva

THIS SONG IS A 1/2 STEP DOWN AND IN DROP D

ENJOY


h=hammer
p=pull off
\=slide down to a higher note
/=slide up to a lower note

		INTRO #1


D#-------------------------------------
A#-------------------------------------
F#--6-6-6-6-6-6-6-6-6\7-7-7-7-7-7-7-7--			    PLAY 4x
C#--x-x-x-x-x-x-x-x-x\x-x-x-x-x-x-x-x--
G#--4-4-4-4-4-4-4-4-4\5-5-5-5-5-5-5-5--
C#-------------------------------------

		INTRO #2
D#--------------------------
A#--------------------------
F#--------------------------				    PLAY 4x
C#--5---3-5-3-O-O----Oh3pO--
G#--5---3-5-3-O-O----Oh3pO--
C#--5---3-5-3-O-O----Oh3pO--
		
		VERSE RIFF
D#----------------------------------
A#----------------------------------
F#----------------------------------			    PLAY 8x
C#--O--3pO--3\5-5\6-6-6-6-6/-5-5-5--
G#--O--3pO--3\5-5\6-6-6-6-6/-5-5-5--
C#--O--3pO--3\5-5\6-6-6-6-6/-5-5-5--			
		
		CHORUS
D#------------------------------------------------
A#------------------------------------------------
F#------------------------------------------------	    PLAY 2x
C#--7------5------3------5-----------------O------
G#--5------3------1------3-----------O-3-O---3-O--
C#------------------------------------------------
[ Tab from: http://www.guitartabs.cc/tabs/s/saliva/your_disease_tab.html ]
		SMALL SOLO
D#--8--------------------8---------------------1O--
A#----8-7--7h8p7--7--7h8p7----8-7--7h8P7--8\1O-----
F#-------------------------------------------------	    PLAY 1x
C#-------------------------------------------------
G#-------------------------------------------------
C#-------------------------------------------------

		BRIDGE
D#---------------------------------------------------------------
A#---------------------------------------------------------------
F#--7-7-7-7-7\11-11-11-11-11-11/9-9-9-9-9\11-11-11-11-11-11-11/--
C#--x-x-x-x-x\-x--x--x--x--x--x/x-x-x-x-x\-x--x--x--x--x--x--x/--
G#--5-5-5-5-5\-9--9--9--9--9--9/7-x-x-x-x\-9--9--9--9--9--9--9/--
C#---------------------------------------------------------------
							PLAY 6x
		
		BREAKDOWN	THE ENDING CHANGES LOOK BELOW				     
D#-----------------------------------------------------------------
A#-----------------------------------------------------------------
F#-----------------------------------------------------------------
C#--7---7---7---7---5---5---5---5---3---3---3---3---5---5---5---5--
G#--5---5---5---5---3---3---3---3---1---1---1---1---3---3---3---3--
C#-----------------------------------------------------------------
								
#1 END ON THIS				

D#---------------
A#---------------
F#---------------
C#--------O------
G#--O-3-O---3-O--
C#---------------

#2 END ON THIS 

D#-----
A#-----
F#-----
C#--7--
G#--5--
C#-----


ORDER:

INTRO #1

INTRO #2

VERSE

CHORUS

INTRO #1 ONLY 2x INSTEAD OF 4x

VERSE

CHORUS

SOLO

BRIDGE

CHORUS 

BREAKDOWN #1

BREAKDOWN #2

Comments