Saliva - Your Disease Chords & Tabs

 

Your Disease Chords & Tabs

Saliva Chords & Tabs

Version: 1 Type: Bass Tab 1 rating
1 star 2 stars 3 stars 4 stars 5 stars
comments

Your Disease Bass Tab

Artist: Saliva
Title: Your Disease
tabbed by: jhurley12
[ Tab from: http://www.guitartabs.cc/tabs/s/saliva/your_disease_btab.html ]
First Riff
------------------------------------------------------------------------------
------------------------------------------------------------------------------
------------------------------------------------------------------------------
-3-2-0-2-0--------0-2-3-2-0-2-0--------0-2-3-2-0-2-0--------0-2-3-2-0-2-0-----
-----------2-2--2---------------2-2--2---------------2-2--2---------------2---
                                                                              
Verse
------------------------------------------------------------------------------
------------------------------------------------------------------------------
------------------------------------------------------------------------------
---0---0-2-3-3-3-3-2-2-2-2----------------------------------------------------
-2---2------------------------------------------------------------------------
                                                                              
Chorus
------------------------------------------------------------------------------
------------------------------------------------------------------------------
------------------------------------------------------------------------------
-----/9-9-9-9-7-7-7-7-5-5-5-5-5/7-7-7-7-7-9-7-9-7-5\--------------------------
-2-2-------------------------------------------------(2-2)--------------------
                                                                              
other part
------------------------------------------------------------------------------
------------------------------------------------------------------------------
------------------------------------------------------------------------------
-2-2-2-2-2-2-2-2-2-2/4-4-4-4-4-4-4--------------------------------------------
------------------------------------------------------------------------------

questions, comments, or correctinos e-mail me at jjs_ELEMENT@hotmail.com


Comments