Saliva - Weight Of The World Chords & Tabs

 

Weight Of The World Chords & Tabs

Saliva Chords & Tabs

Version: 1 Type: Tab 0 ratings
1 star 2 stars 3 stars 4 stars 5 stars
comments

Weight Of The World Tab

Aritist: Saliva
Song: Weight of the World
Album: Back into your system
Year: 2002
Transcribed by: Ryan Stanton-Wyman,
                Gonzaga University
                Mechanical Engineering
                Class of 2006
                ryan_sw@hotmail.com

Published: December 3, 2002
Lyrics from azlyrics.com
Note: This is my second published tab...And second Saliva tab...

Comments:
	Gotta give props to Saliva.  Their new sound is just awesome.  This song is one of the
best on their new album I think.
	Let me just say now that not everything is right.  This is the first tab I've seen of this 
song, so I'm just relying on my ear, I have no other sources.  If you can do better please take 
this and fix it and post it back up here so no one else hase to suffer through my mistakes. 
Otherwise, feel free to email me with suggestions @ ryan_sw@hotmail.com.  Good luck and enjoy!

***********************************Note***********************************
*********************Tuned half step down to Drop-D tuning****************
	
	But I play it like this cuz its easier to tune back and forth:

**********************************DADGBe**********************************

Intro - Mucky(Some distortion):
e|-------------------------------4th time play this:----------------------
B|------------------------------------------------------------------------
G|----------6--6-6~4----------------------6-------------------------------  Play 4X
D|--4~6-4-x-4--4-4~2--------------4~6-4-x-4--let ring---------------------
A|--2~4-4-x-4--4-4~2--------------2~4-4-x-4-------------------------------
D|--2~4-4-x-0--0-0~0--------------2~4-4-x-0-------------------------------

[ Tab from: http://www.guitartabs.cc/tabs/s/saliva/weight_of_the_world_tab.html ]
Intro (Part 2) heavy distortion:
e|------------------------------------------------------------------------
B|------------------------------------------------------------------------
G|------------------------------------------------------------------------  Play 8X
D|--0-h4-4-4--00-h4-4-4--0--0-0-------------------------------------------
A|--0-h4-4-4--00-h4-4-4--0--0-0-------------------------------------------
D|--0-h4-4-4--00-h4-4-4--0--0-0-------------------------------------------

On the 4th time the second guitar comes in with:
e|------------------------------------------------------------------------
B|--2--3--2---------------------------------------------------------------
G|-----------2------------------------------------------------------------  Play 2X
D|------------------------------------------------------------------------
A|------------------------------------------------------------------------
D|------------------------------------------------------------------------


Verse (soft/light distortion)(Its actually supposed to be a base line, but 
you can just substitute these chords instead):
e|-----------------------------------------------------------------------
B|-----------------------------------------------------------------------
G|-----------------------------------------------------------------------
D|--4---0----------------------------------------------------------------
A|--4---0----------------------------------------------------------------
D|--4---0----------------------------------------------------------------

Verse:
4		     0 
Love to be beside you, the way you smell,
4		       0
The way your lips feel and your fingernails.

The way your fingers crawl up my spine,

The way you always make me the last in line.



I carry the weight of the world as the past is unfurled, but I won't stop to wonder.

Going through this life on my own made me as cold as a stone. I'm a ship going under.

And I'd tell you this, but I don't know how.

I'm caving in and I'm falling out and I can't resist

And I can't rebound with the weight of the world as the world falls down.

It's the way you thrill me, then pull away.

The way you seem to kill me a little more each day.

And it's what you're thinking in your twisted mind

The way your body trembles when it's next to mine.

This pain I think about it everyday, it tells me I'm never gonna get away.

I know it's over, but I can't escape memories and how to face another day.
Comments