Saliva - Two Steps Back Chords & Tabs

 

Two Steps Back Chords & Tabs

Saliva Chords & Tabs

Version: 2 Type: Tab 0 ratings
1 star 2 stars 3 stars 4 stars 5 stars
comments

Two Steps Back Tab

   
-------------------------------------------------------------------------------
			     2 Steps Back - Saliva
-------------------------------------------------------------------------------
Tabbed by: Wilfred Geck

Tuning:

Intro/Chorus
D|---------------------------------------------------------------------------|
A|---------------------------------------------------------------------------|
B|---------------------------------------------------------------------------|
C|---------5-------------3---------------------------------------------------| 2X
G|--5-----3-----3------1----------------------------------------------------|
C|--5-----------3------------------------------------------------------------|
[ Tab from: http://www.guitartabs.cc/tabs/s/saliva/two_steps_back_tab_ver_2.html ]
Verse
|---------------------------------------------------------------------------| 
|---------------------------------------------------------------------------|
|---------------------------------------------------------------------------|
|------------3--------------------------------------------------------------| 2X
|---5-------1-------1-------3-----------------------------------------------|
|---5---------------1-------3-----------------------------------------------|

Bridge
|---------------------------------------------------------------------------|
|---------------------------------------------------------------------------|
|---------------------------------------------------------------------------|
|----5-------5--------------------------------------------------------------|
|----3-------3----------3-----5-----8----5----------------------------------|
|------------------------3-----5-----8----5---------------------------------|

| /  slide up
| \  slide down
| h  hammer-on
| p  pull-off
| ~  vibrato
| +  harmonic
| x  Mute note
===============================================================================
Comments