Saliva - The World Is On To Me Chords & Tabs

 

The World Is On To Me Chords & Tabs

Saliva Chords & Tabs

Version: 1 Type: Tab 0 ratings
1 star 2 stars 3 stars 4 stars 5 stars
comments

The World Is On To Me Tab

   
I figured out most this song on my first attempt. I only know the main riff and the 
interlude,so hopefully someone can figure out the solo.

dgcad

I'm only showing the bottom three.

intro

P.M.
c--------------------------------------
G--------------------------------------
D-0-7-0-7-0-5-5-5-5-5-5-8-8-8-7-7-8-7-8
[ Tab from: http://www.guitartabs.cc/tabs/s/saliva/the_world_is_on_to_me_tab.html ]
C-0-7-0-7-0-5-5-5-5-5-5-8-8-8-7-7-8-7-8
G-0-7-0-7-0-5-5-5-5-5-5-8-8-8-7-7-8-7-8 x2
D-0-7-0-7-0-5-5-5-5-5-5-8-8-8-7-7-8-7-8

for the verse play the palm muted part

Pre-chorus

C-8----7----5----3
G-8----7----5----3 x2
D-8----7----5----3

for the chorus play the non palm muted part of the intro

interlude

C-7/8-7/8--7/8-7/8-10-7
G-7/8-7/8--7/8-7/8-10-7
D-7/8-7/8--7/8-7/8-10-7

play pre-chorus x4

i don't know the solo or the rhythm part for the solo so someone please post it if 
you do know. If I screwed up, please post a comment an let me know.Thanks!
Comments