Saliva - Survival Of The Sickest Chords & Tabs

 

Survival Of The Sickest Chords & Tabs

Saliva Chords & Tabs

Version: 5 Type: Tab 0 ratings
1 star 2 stars 3 stars 4 stars 5 stars
comments

Survival Of The Sickest Tab

e|--------------------------------------------------------------------------|
B|--------------------------------------------------------------------------|
G|--------------------------------------------------------------------------|
D|--------------------------------------------------------------------------|
A|---------0-0-0----------0-0-0---------0-0-0-------------------------------|
E|-2-2-0-2--------2-2-0-2-------2-2-0-2-------2-2-0-2--0-0-0----------------|

e|--------------------------------------------------------------------------|
B|--------------------------------------------------------------------------|
G|----------------------------then play-------------------------------------|
D|---4-4-2-4-7-7-7---------------------4-4-2-4--2-2-2------play this 2wice--|
A|---4-4-2-4-7-7-7-x3------------------4-4-2-4--2-2-2-----------------------|
E|---2-2-0-2-5-5-5---------------------2-2-0-2--0-0-0-----------------------|

[ Tab from: http://www.guitartabs.cc/tabs/s/saliva/survival_of_the_sickest_tab_ver_5.html ]
           Play Each Chord 8 Times, This is the Verses
e|--------------------------------------------------------------------------|
B|--------------------------------------------------------------------------|
G|--------------------------------------------------------------------------|
D|--4-----2-----9------7----------------------------------------------------|
A|--4-----2-----9------7----------------------------------------------------|
E|--2-----0-----7------5----------------------------------------------------|

      "Now"         "Crowd"             "Loud"           "Out of the game"
e|--------------------------------------------------------------------------|
B|--------------------------------------------------------------------------|
G|--------------------------------------------------------------------------|
D|------4---------------2------------------9--------------------7-----------|
A|------4---------------2------------------9--------------------7-----------|
E|------2---------------0------------------7--------------------5-----------|

                   After the Chours, play each chord 8 times
e|--------------------------------------------------------------------------|
B|--------------------------------------------------------------------------|
G|--------------------------------------------------------------------------|
D|------4---------------2-------------------9-------------------7-----------|
A|------4---------------2-------------------9-------------------7-----------|
E|------2---------------0-------------------7-------------------5-----------|

PLay this again for the verses and chours and ill figure out the solo later

By: Jim Skupien
Comments