Saliva - Superstar Chords & Tabs

 

Superstar Chords & Tabs

Saliva Chords & Tabs

Version: 1 Type: Tab 0 ratings
1 star 2 stars 3 stars 4 stars 5 stars
comments

Superstar Tab

   
When I first heard this song, I knew I had to learn it.  I don't think the
spacing is very accurate, so just listen to the actual recording for timing.

Superstar
As performed on "Every Six Seconds"
Words and music by Josey Scott

Drop Db tuning

h       hammer on
p       pull off
b       bend
/       slide up
PM      palm muting
Wayne   Guitar 1
Chris   Guitar 2

The whole song is played with distortion

(Sound effects for about ten seconds)

Intro (x2, both guitars)               after 1st time     2nd time
eb[------------------------------------]-----------------[-------------
Bb[------------------------------------]-----------------[-------------
Gb[------------------------------------]-----------------[-------------
Db[------------------------------------]-3-------5-------[-5-------3---
Ab[-0--3--0-0-3p0---0-0-0-3p0-0-0-3p0--]-3-------5-------[-5-------3---
Db[-0--3--0-0-3p0---0-0-0-3p0-0-0-3p0--]-3-------5-------[-5-------3---

Verse (both guitars, x4)               1st, 3rd times    2nd, 4th times
eb[------------------------------------]-----------------[-------------
Bb[------------------------------------]-----------------[-------------
Fb[------------------------------------]-----------------[-------------
Db[------------------------------------]-----------------[-------------
Ab[------------------------------------]-----------------[-------------
Db[-0--3--0-0-3p0---0-0-0-3p0-0-0-3p0--]-3-------5-------[-5-------3---
  PM...............................................................
[ Tab from: http://www.guitartabs.cc/tabs/s/saliva/superstar_tab.html ]
Chorus 1  (both guitars, x2)
eb[-----------------------------------------------------
Bb[-----------------------------------------------------
Gb[-----------------------------------------------------
Db[-0--0-----3--3h4---0--0-----3--3h4------5----3-------
Ab[-0--0-----3--3h4---0--0-----3--3h4------5----3-------
Db[-0--0-----3--3h4---0--0-----3--3h4------5----3-------

Verse

Chorus 1 (x4)

Chorus 2 (Chris, x2)
eb[-----------------------------------------
Bb[-----------------------------------------
Gb[-7-------5-------------------------------
Db[-7-------5-------5-------3---------------
Ab[-5-------3-------5-------3---------------
Db[-----------------5-------3---------------

Chorus 2 (Wayne, x2)
eb[-----------------------------------------
Bb[-----------------------------------------
Gb[-----------------------------------------
Db[-9/16-------14---------------------------
Ab[---------------------14-------12---------
Db[-----------------------------------------

GUITAR SOLO (Wayne)
eb[----------------------------------------------
Bb[--10----12----13-------13----12----10---------
Gb[-/12b14-14b16-15b17----15b17-14b16-12b14------
Db[----------------------------------------------
Ab[----------------------------------------------
Db[----------------------------------------------

eb[-----------------------------------------
Bb[-8-------6------3------------------------
Gb[-10b12---8b10---5b7---5------------------
Db[-------------------------7--5------------
Ab[-------------------------------8--5------
Db[-----------------------------------------

Verse

Chorus 1 (x4)

Chorus 2 (x4)

When Josey sings the 1st Chorus, play the Intro I think 4 times.

And that's it

Song Structure
(Sound effects)
Intro
Verse
Chorus 1
Verse
Chorus 1
Chorus 2
GUITAR SOLO
Verse
Chorus 1
Chorus 2
Intro

Peace.
Comments