Saliva - Superstar Chords & Tabs

 

Superstar Chords & Tabs

Saliva Chords & Tabs

Version: 1 Type: Bass Tab 0 ratings
1 star 2 stars 3 stars 4 stars 5 stars
comments

Superstar Bass Tab

   
Song: Superstar
Artist: Saliva
Album: Every Six Seconds
Tabbed By: Cheran Shunmugavel
           gfngfgf@hotmail.com

Lowered One and a Half-step Tuning (Db Gb B E)


Main Riff
E ---------------------------------------------------------------
B ---------------------------------------------------------------
Gb-------------.-------------.-----------------------------------
Db--0--3-0-3-3-0----0-3--3-3-0----0--3-0-3-3-0--3-3-3-3-5-5-5-5--
[ Tab from: http://www.guitartabs.cc/tabs/s/saliva/superstar_btab.html ]
E ---------------------------------------------------------------
B ---------------------------------------------------------------
Gb-------------.-------------.-----------------------------------
Db--0--3-0-3-3-0----0-3--3-3-0----0--3-0-3-3-0--5-5-5-5-3-3-3-3--


Pre-Chorus ("Yay, make me a superstar...")
E ----------------------------------------------------
B ----------------------------------------------------
Gb----------------------------------------------------
Db--0--0--3----0--0-0-3----0--0-0-3----5--5-5-3--3-3--


Last Pre-Chorus before Chorus
E ---------------------------------------------
B ---------------------------------------------
Gb------------------------------------------.--
Db--0--0--3----0--0-0-3----0--0-0-3----5--5-5--


Chorus ("And all of my pills...")
E ------------------------------------
B ------------------------------------
Gb---7------5-------------------------
Db--------------------5-------3-------


<>
Comments