Saliva - Storm Chords & Tabs

 

Storm Chords & Tabs

Saliva Chords & Tabs

Version: 1 Type: Bass Tab 0 ratings
1 star 2 stars 3 stars 4 stars 5 stars
comments

Storm Bass Tab

Saliva
Storm
Back into your System

Tabbed By :Earth_Rave 
e-mail: earth_rave@myway.com

Tuning:BEADG

No bass until 0:16

Intro (0:16)
G|----------------|
D|----------------|
A|----------------|
E|---5-----5------|
B|2-----2---------| x8

Verse (0:39) "My life is like..."
G|---|
D|---|
A|---|
E|---|
B|2--|  Just keep playing that note

Pre-chorus (1:01) "I've got to rise above..."
G|--------------------------------|
D|--------------------------------|
A|------------------------2--2----|
E|2--2----2--2----5--5------------|
B|--------------------------------|

Chorus (1:12) "I'll save myself..."
G|--------------------------------|
D|--------------------------------|
A|--------2--2--------------------|
E|0--0------------2--2----5--5----|
B|--------------------------------| 2x
[ Tab from: http://www.guitartabs.cc/tabs/s/saliva/storm_btab.html ]
Post-chorus (1:36) "...facin' the storm..."
G|----------------|
D|----------------|
A|----------------|
E|---5-----5------|
B|2-----2---------| x4

Verse (1:46) - same as before "My life is filled..."

Pre-chorus (2:08) - same as before "I've got to rise..."

Chorus (2:19) - same as before "I'll save myself..."

Post-chorus (2:41) - same as before "...facin' the storm.."

Bridge (2:53)
G|--------------------------------|
D|--------------------------------|
A|------------------------2--2----|
E|2--2----2--2----5--5------------|
B|--------------------------------|  then silence until 3:15

Final chorus (3:15) "I'll save myself..."
G|--------------------------------|
D|--------------------------------|
A|--------2--2--------------------|
E|0--0------------2--2----5--5----|
B|--------------------------------| 4x

Outro (3:59) "...oooooooooooorrrm."
G|----------------|
D|----------------|
A|----------------|
E|---5-----5------|
B|2-----2---------| x4
Comments