Saliva - Rest In Pieces Chords & Tabs

 

Rest In Pieces Chords & Tabs

Saliva Chords & Tabs

Version: 2 Type: Tab 1 rating
1 star 2 stars 3 stars 4 stars 5 stars
comments

Rest In Pieces Tab

   
#----------------------------------PLEASE NOTE---------------------------------#
#This file is the author's own work and represents their interpretation of the #
#song. You may only use this file for private study, scholarship, or research. #
#------------------------------------------------------------------------------##
From: feverdog
Subject: [TAB] Saliva- rest in pieces

SALIVA- NEW SONG- REST IN PIECES

Intro(x2)



Guitar 1
e------------------------------------
b----------6---------------4---------
g-----6------6---6-----6-----6---6---
d---6---6------6-----6---6-----6-----
a-4----------------4-----------------
E------------------------------------

Guitar 2(played during riff above)
e-----------4~-
b-4-6~-4-6-----
g--------------
d--------------
a--------------
E--------------

Verse

Guitar 1
Part A(2 or 3x then part B)
e------------------------------------
b----------6---------------4---------
g-----6------6---6-----6-----6---6---
d---6---6------6-----6---6-----6-----
a-4----------------4-----------------
E------------------------------------
Part B
e-------------------      -------------------
b----------6--------      ---------7---------
g------6------6---6-  (x2)------6------6---6- (x2)
d---6----6------6---      ----6---6------6---
a-4-----------------      -4-----------------
E-------------------      -------------------

Guitar 2(not sure)
[ Tab from: http://www.guitartabs.cc/tabs/s/saliva/rest_in_pieces_tab_ver_2.html ]
Chorus
e------------------------------------------------------
b------------------------------------------------------
g-3-3-3-3-3-3-3-3-3-6-6-6-6-6-6-6-6-6------------------
d-3-3-3-3-3-3-3-3-3-6-6-6-6-6-6-6-6-6-4-4-4-4-4-4-4-4-4
A-1-1-1-1-1-1-1-1-1-4-4-4-4-4-4-4-4-4-4-4-4-4-4-4-4-4-4
E-------------------------------------2-2-2-2-2-2-2-2-2

e----------------------------------------------------------------------
b----------------------------------------------------------------------
g-3-3-3-3-3-3-3-3-3-6-6-6-6-6-6-6-6-6----------------------------------
d-3-3-3-3-3-3-3-3-3-6-6-6-6-6-6-6-6-6-4-4-4-4-4-4-4-4-4-7-7-7-7-9-9-9-9
A-1-1-1-1-1-1-1-1-1-4-4-4-4-4-4-4-4-4-4-4-4-4-4-4-4-4-4-7-7-7-7-9-9-9-9
E-------------------------------------2-2-2-2-2-2-2-2-2-5-5-5-5-7-7-7-7

Verse 2(same as Verse 1)
Chorus 2(same as chorus 1)

Breakdown(x2)
e-------------------      e---------------
b----------6--------      b---------7-----
g------6------6---6-(x2)  g-----6----6---6 (x2)
d---6----6------6---      d-4-6---6----6--
a-4-----------------      a---------------
E-------------------      E---------------

Chorus 3(same as chorus 1 and 2)

Ending                        End On
e------------------------            e--
b------------------------            b--
g-6-6-6-6----------------            g-6~~
d-6-6-6-6-7-7-7-7-9-9-9-9            d-6~~
A-4-4-4-4-7-7-7-7-9-9-9-9            A-4~~
E---------5-5-5-5-7-7-7-7            E--

Comments