Saliva - Rest In Pieces Chords & Tabs

 

Rest In Pieces Chords & Tabs

Saliva Chords & Tabs

Version: 1 Type: Bass Tab 0 ratings
1 star 2 stars 3 stars 4 stars 5 stars
comments

Rest In Pieces Bass Tab

Band- Saliva
Song- Rest In Pieces

Tuning- Drop half-step

Verse 1

Gb -----------------------------------------------|
Db -----------------------------------------------|
Ab -----------------------------------------------|     x 4
Eb -10---10-10---10-10-10-10-10-10-10-10----------|

Gb ----------------------------------------------------------------------------------|
Db ----------------------------------------------------------------------------------|
Ab ----------------------------------------------------------------------------------|
Eb -7---7-7--7-7-7-7-7-7-7-7---2---2-2--2-2-2-2-2-2-2-2---3---3-3--3-3-3-3-3-3-3-3---|

Gb -------------------------------------------------------------------------|
Db -------------------------------------------------------------------------|
Ab -------------------------------------------------------------------------|
Eb -3---3-3--3-3-3-3-3-3-3-3--10--------7--------5----10--------------------|

Gb ----------------------------------------------------------------------------------|
Db ----------------------------------------------------------------------------------|
Ab ----------------------------------------------------------------------------------|
Eb -7---7-7--7-7-7-7-7-7-7-7---2---2-2--2-2-2-2-2-2-2-2---3--3-3---3-3-3-3-3-3-3-3-3-|

Verse 2

Gb ----------------------------------------------|
Db ----------------------------------------------|
Ab ----------------------------------------------|     x 4
Eb -10---10-10---10-10-10-10-10-10-10-10---------|
[ Tab from: http://www.guitartabs.cc/tabs/s/saliva/rest_in_pieces_btab.html ]
Gb ----------------------------------------------------------------------------------|
Db ----------------------------------------------------------------------------------|
Ab ----------------------------------------------------------------------------------|
Eb -7---7-7--7-7-7-7-7-7-7-7---2---2-2--2-2-2-2-2-2-2-2---3---3-3--3-3-3-3-3-3-3-3-3-|

Chorus

Gb ------------------------------------------------------------------------|
Db ------------------------------------------------------------------------|
Ab ------------------------------------------------------------------------|
Eb -7-7---7-7-7-7---10-10---10-10-10-10---3-3---3-3-3-3---6---6-6----------|

Gb --------------------------------------------------------------------------------|
Db --------------------------------------------------------------------------------|
Ab --------------------------------------------------------------------------------|
Eb -7-7---7-7-7-7---10-10---10-10-10-10---3-3---3-3-3-3---6-----6-6---8---8-8-10---|


Ending

Gb ----------------------------------------------------------------------------------|
Db ----------------------------------------------------------------------------------|
Ab ----------------------------------------------------------------------------------|
Eb ---7-7---7-7-7-7---10-10---10-10-10-10---3-3---3-3-3-3---6-----6-----8---8-8------|

Gb ------------------------------------------------|
Db ------------------------------------------------|
Ab ------------------------------------------------|      x 3
Eb ---10-10---10-10-10-10-10---6------8-8----------|

Gb -------------------------------------------------|
Db -------------------------------------------------|
Ab -------------------------------------------------|
Eb ---10-10---10-10-10-10-10---6------8-8----10-----|


Here's the order for the song:

Verse 1
Chorus
Verse 2
Chorus
Break (no Bass)
Ending
Comments