Saliva - Lackluster Chords & Tabs

 

Lackluster Chords & Tabs

Saliva Chords & Tabs

Version: 1 Type: Bass Tab 0 ratings
1 star 2 stars 3 stars 4 stars 5 stars
comments

Lackluster Bass Tab

Song: Lackluster
Artist: Saliva
Album: Every Six Seconds
Tabbed By: Cheran Shunmugavel
           gfngfgf@hotmail.com

Lowered One and a Half Step Tuning (Db Gb B E)


Intro
E------------
B------------
Gb-----------
Db--0-6h7-6--


Main Riff
E-------------------------------
B-------------------------------
Gb----.-----.-----.--.----------
Db--0-0---0-0---0-0--0-0-6h7-6--

[ Tab from: http://www.guitartabs.cc/tabs/s/saliva/lackluster_btab.html ]
Pre-Chorus
E------------------------
B------------------------
Gb--5------3-------------
Db--------------0-6h7-6--
                              X2
E-------------------------------
B-------------------------------
Gb----.-----.-----.--.----------
Db--0-0---0-0---0-0--0-0-6h7-6--

E-----------------------------------------
B-----------------------------------------
Gb--5------3------7--7--7--7--5--5--5--5--
Db----------------------------------------


Chorus
E-------------------------------
B-------------------------------
Gb--7------3------5------0------
Db------------------------------


<>
Comments