Saliva - King Of My World Chords & Tabs

 

King Of My World Chords & Tabs

Saliva Chords & Tabs

Version: 1 Type: Tab 0 ratings
1 star 2 stars 3 stars 4 stars 5 stars
comments

King Of My World Tab

song: king of my world (WWE anthology cd)

artist: saliva

tabbed by: max deuble

tuning: dropped d (DADGBE)

INTRO:
E--------------------------------------------
B--------------------------------------------
G------------------------------5-5-----------
D--3h0--3h0--3h0-5---3h0--3h0--X-X--3h0--3h0--3h0-5---3h0--3h0--5-5-5
A--3h0--3h0--3h0-5---3h0--3h0--3-3--3h0--3h0--3h0-5---3h0--3h0--5-5-5-
D--3h0--3h0--3h0-5---3h0--3h0-------3h0--3h0--3h0-5---3h0--3h0--5-5-5--
[ Tab from: http://www.guitartabs.cc/tabs/s/saliva/king_of_my_world_tab.html ]
E--------------------------------------
B---------------------------------
G--5~-4~-2~-1~----------17~-16~-14~-14h16p14--13~-14--
D----------------------------------------
A--------------------------------------------
D-------------------------------------------

VERSE:
E-----------------------
B------------------------
G--------------------------
D-------------------------repeat as much as needed-
A--------------------------
D-3-0--3-0-----3-0--3-0-----------

thats all i have done so far. if you have any corrections, comments, 
or queries then don't hestitate to email me at
d__o__a@hotmail.com 

P.S ( __ means double underscore)
Comments