Saliva - Click Click Boom Chords & Tabs

 

Click Click Boom Chords & Tabs

Saliva Chords & Tabs

Version: 7 Type: Tab

Click Click Boom Tab

****Saliva - Click Click Boom
****Standard Tuning
****Ryan Marshall
****Slide= /
E------------------------------------|
B------------------------------------|
G-6-6-4-/-6-/-4----------------------|
D-6-4-4-/-6-/-4-4-2------------------|
A-4-4-2-/-4-/-2-4-2------------------|
E---------------2-0------------------|


E------------------------------------|
B------------------------------------|
G-6-6-4-/-6-/-4----------------------|
D-6-4-4-/-6-/-4----------------------|
A-4-4-2-/-4-/-2----------------------|
E------------------------------------|

[ Tab from: http://www.guitartabs.cc/tabs/s/saliva/click_click_boom_tab_ver_7.html ]