Saliva - Click Click Boom Chords & Tabs

 

Click Click Boom Chords & Tabs

Saliva Chords & Tabs

Version: 4 Type: Tab 2 ratings
1 star 2 stars 3 stars 4 stars 5 stars
comments

Click Click Boom Tab

CLICK, CLICK, BOOM by Saliva
Transcribed by Chet Kucenski

Drop D Tuning  ½ Step Down




 Intro:

E-------------------------------------------------------------------------------------------------------------------------------------------------- 
B--------------------------------------------------------------------------------------------------------------------------------------------------
G--------------------------------------------------------------------------------------------------------------------------------------------------
D------------------------------------------------------------------------------------------------x---x-------------x---x---------------------------
A---------0-----10----0----10-------------5---5---5---0---3---5----------0----10---0---10--------x---x-------------x---x---------------------------
D---------0-----10----0----10-------------5---5---5---0---3---5----------0----10---0—--10--------x---x-------------x---x---------------------------

E-------------------------------------------------------------------------------------------------------------------------------------------------- 
B--------------------------------------------------------------------------------------------------------------------------------------------------
G--------------------------------------------------------------------------------------------------------------------------------------------------
D-------------------------------------------------------------------------------------------------x-----------------5\-----------------------------
A---------0-----10----0-----10------------5---5---5---0---3---5----------0----10---0---10---------x---x-------------5\-----------------------------
D---------0-----10----0-----10------------5---5---5---0---3---5----------0----10---0---10---------x---x-------------5\-----------------------------
  Repeat 3X


E-------------10----------------------------------------------------------------10----------------------------------------------------------------- 
B---------------------------10------------------------------------------------------------------10-------------------------------------------------
G--------------------------------------------------------------------------------------------------------------------------------------------------
D--------------------------------------------------------------------------------------------------------------------------------------------------
A--------------------------------------------------------------------------------------------------------------------------------------------------
D--------------------------------------------------------------------------------------------------------------------------------------------------
   (Flange with wah using rapid foot movement).  This simulates a rotovibe.


E-------------------------------------------------------------------------------------------------------------------------------------------------- 
B--------------------------------------------------------------------------------------------------------------------------------------------------
G--------------------------------------------------------------------------------------------------------------------------------------------------
D--------------------------------------------------------------------------------------------------------------------------------------------------
A--10\------0----1----1----3---/3-5-3\---------0----1----1----3---/3-5-3\--------0----1----1----3---/3-5-3\--------- 0----1----1----3----5\--------
D--10\------0----1----1----3---/3-5-3\---------0----1----1----3---/3-5-3\--------0----1----1----3---/3-5-3\--------- 0----1----1----3----5\--------     



E-------------------------------------------------------------------------------------------------------------------------------------------------- 
B--------------------------------------------------------------------------------------------------------------------------------------------------
G-------------------------------------------------------------------------------------------------------------------------------------------------- 
D---------------------------------------------------------------------------------------------------------------------5\--------------------------- 
A---------0-----10----0-----10-------------5---5---5---0---3---5----------0----10---0---10----------------------------5\--------------------------- 
D---------0-----10----0-----10-------------5---5---5---0---3---5----------0----10---0—--10----------------------------5\--------------------------- 
  Repeat 4X


E-------------10-----------------------------------------------------------------10---------------------------------------------------------------- 
B---------------------------10~~~~~~~~~~~~~~~~~~~~~~~~~~~~~~~~~~~------------------------------10--------------------------------------------------
G--------------------------------------------------------------------------------------------------------------------------------------------------
D--------------------------------------------------------------------------------------------------------------------------------------------------
A--------------------------------------------------------------------------------------------------------------------------------------------------
D--------------------------------------------------------------------------------------------------------------------------------------------------
   (Flange with wah using rapid foot movement).  This simulates a rotovibe.

[ Tab from: http://www.guitartabs.cc/tabs/s/saliva/click_click_boom_tab_ver_4.html ]
E-------------------------------------------------------------------------------------------------------------------------------------------------- 
B--------------------------------------------------------------------------------------------------------------------------------------------------
G--------------------------------------------------------------------------------------------------------------------------------------------------
D--------------------------------------------------------------------------------------------------------------------------------------------------
A--10\------0----1----1----3---/3-5-3\---------0----1----1----3---/3-5-3\--------0----1----1----3---/3-5-3\--------- 0----1----1----3-----5\-------
D--10\------0----1----1----3---/3-5-3\---------0----1----1----3---/3-5-3\--------0----1----1----3---/3-5-3\--------- 0----1----1----3-----5\-------   
  Repeat 4X

 Bridge:

E-------------------------10---------------8----------------------10---------------8-----------10---------------8-------------------10------------8 
B-----------------10-------------10-------------- -------10----------------10-----------8---------------10-------------10-----8-----------10-------
G--------10--------------------------------------10-------------------------------------7-------------------------------------7-------------------- 
D---------8---------------------------------------8-------------------------------------5-------------------------------------5-------------------- 
A---------8---------------------------------------8-------------------------------------5-------------------------------------5-------------------- 
D---------8---------------------------------------8-------------------------------------5-------------------------------------5--------------------
   Played through 2X using Flanger 


E-------------------------
B-------------------------
G------------------------- 
D---------3\-------------- 
A---------3\-------------- 
D---------3\--------------


E---------------------------------------------------------------------------------------------------------------------------------------------------- 
B----------------------------------------------------------------------------------------------------------------------------------------------------
G---------------------------------------------------------------------------------------------------------------------------------------------------- 
D---------------------------------------------------------------------------------------------------------------------5\----------------------------- 
A---------0-----10----0-----10-------------5---5---5---0---3---5----------0----10---0---10----------------------------5\----------------------------- 
D---------0-----10----0-----10-------------5---5---5---0---3---5----------0----10---0—--10----------------------------5\----------------------------- 
   Repeat 4X

 Interlude:

E---------------------------------------------------------------------------------------------------------------------------------------------------- 
B----------------------------------------------------------------------------------------------------------------------------------------------------
G----------7----7----7-----------5----5----5----5----5----------------------------------------------------------------------------------------------- 
D----------5----5----5-----------3----3----3----3----3----------------------------------------------------------------------------------------------- 
A-----------------------------------------------------------------------5----5----5----------3----3----3----3----3----------------------------------- 
D-----------------------------------------------------------------------5----5----5----------3----3----3----3----3-----------------------------------
    Repeat 4X Using Flanger



E---------------------------------------------------------------------------------------------------------------------------------------------------- 
B--------------------11---------11------------------------8----------8------------------------11-----------11----------------------------------------
G----------7---------10---------10-------------5----------7----------7------------7-----------10-----------10-------------2-------------------------- 
D----------7----------8----------8-------------5----------5----------5------------7------------8------------8-------------2--------5----------5--5---
A----------5----------8----------8-------------3----------5----------5------------5------------8------------8-------------0--------5----------5--5--- 
D---------------------8----------8------------------------5----------5-------------------------8------------8----------------------5----------5--5---



E---------------------------------------------------------------------------------------------------------------------------------------------------- 
B--------------------11---------11------------------------8----------8------------------------11-----------11----------------------------------------
G----------7---------10---------10-------------5----------7----------7------------7-----------10-----------10-------------2-------------------------- 
D----------7----------8----------8-------------5----------5----------5------------7------------8------------8-------------2-----2-2-2-2-2--------5\--
A----------5----------8----------8-------------3----------5----------5------------5------------8------------8-------------0-----0-0-0-0-0--------5\-- 
D---------------------8----------8------------------------5----------5-------------------------8------------8------------------------------------5\--

 Outro: 

E---------------------------------------------------------------------------------------------------------------------------------------------------- 
B----------------------------------------------------------------------------------------------------------------------------------------------------
G---------------------------------------------------------------------------------------------------------------------------------------------------- 
D---------------------------------------------------------------------------------------------------------------------5\----------------------------- 
A---------0-----10----0-----10-------------5---5---5---0---3---5----------0----10---0---10----------------------------5\----------------------------- 
D---------0-----10----0-----10-------------5---5---5---0---3---5----------0----10---0—--10----------------------------5\----------------------------- 
   Repeat 7X
Comments