Saliva - Click Click Boom Chords & Tabs

 

Click Click Boom Chords & Tabs

Saliva Chords & Tabs

Version: 3 Type: Tab 1 rating
1 star 2 stars 3 stars 4 stars 5 stars
comments

Click Click Boom Tab

Band: Saliva
Song: Click Click Boom
Album: Every Six Seconds
Guitarists: Wayne Swinny & Chris D'abaldo
Transcribed by: Flake
Tuning: Drop D down 1/2 step


Notation Legend:
\=slide down
(/)=legato slide up (first not struck only)
(\)=legato slide down (first note struck only)
T=tremolo pick
PM=palm mute
x=muflled strings
*\=pick scrape

Intro w/ distortion

Gtr. 1
E----------------|-----------------|----------------|----------------|
B----------------|-----------------|----------------|----------------|
G----------------|-----------------|----------------|----------------|
D----------------|-----------------|----------------|----------------|
A--0--10--0--10\-|-5-5-5-5-3-5-3-5-|--0--10--0--10--|----------------|
D--0--10--0--10\-|-5-5-5-5-3-5-3-5-|--0--10--0--10--|----------------|

Gtr. 2
E----------------|-----------------|----------------|----------------|
B----------------|-----------------|----------------|----------------|
G----------------|-----------------|----------------|----------------|
D----------------|-----------------|----------------|--x--x---x-x-x--|
A----------------|-----------------|----------------|--x--x---x-x-x--|
D----------------|-----------------|----------------|--x--x---x-x-x--|

Gtr. 1
E----------------|-----------------|----------------|----------------|
B----------------|-----------------|----------------|----------------|
G----------------|-----------------|----------------|----------------|
D----------------|-----------------|----------------|----------------|
A--0--10--0--10\-|-5-5-5-5-3-5-3-5-|--0--10--0--10--|----------------|
D--0--10--0--10\-|-5-5-5-5-3-5-3-5-|--0--10--0--10--|----------------|

Gtr. 2
E----------------|-----------------|----------------|----------------|
B----------------|-----------------|----------------|----------------|
G----------------|-----------------|----------------|----------------|
D-x--------------|-----------------|----------------|--x-x--x-x--5\--|
A-x--------------|-----------------|----------------|--x-x--x-x--5\--|
D-x--------------|-----------------|----------------|--x-x--x-x--5\--|

Gtr. 1
E----------------|-----------------|----------------|----------------|
B----------------|-----------------|----------------|----------------|
G----------------|-----------------|----------------|----------------|
D----------------|-----------------|----------------|----------------|
A--0--10--0--10\-|-5-5-5-5-3-5-3-5-|--0--10--0--10--|----------------|
D--0--10--0--10\-|-5-5-5-5-3-5-3-5-|--0--10--0--10--|----------------|

Gtr. 2
E----------------|-----------------|----------------|----------------|
B----------------|-----------------|----------------|----------------|
G----------------|-----------------|----------------|----------------|
D----------------|-----------------|----------------|---x---x---x----|
A----------------|-----------------|----------------|---x---x---x----|
D----------------|-----------------|----------------|---x---x---x----|

Gtr. 1 (Gtr. 2 tacet)
E----------------|-----------------|----------------|----------------|
B----------------|-----------------|----------------|----------------|
G----------------|-----------------|----------------|----------------|
D----------------|-----------------|----------------|----------------|
A--0--10--0--10\-|-5-5-5-5-3-5-3-5-|--0--10--0--10--|----------------|
D--0--10--0--10\-|-5-5-5-5-3-5-3-5-|--0--10--0--10--|----------------|


Verse

Gtr. 1         play 4 times
E--------------------------|--------------------------|
B--------------------------|--------------------------|
G--------------------------|--------------------------|
D--------------------------|--------------------------|
A--0--1--3---3--3(/)6(\)3--|--0--1--3---3--3(/)6(\)3--|
D--0--1--3---3--3(/)6(\)3--|--0--1--3---3--3(/)6(\)3--|
   PM--------------------|

Gtr. 2
E--------------------------|--10----------------------|
B--------------------------|---T----10----------------|
G--------------------------|---------T----------------|
D--------------------------|--------------------------|
A--------------------------|--------------------------|
D--------------------------|--------------------------|

Gtr. 1
E--------------------------|--------------------------|
B--------------------------|--------------------------|
G--------------------------|--------------------------|
D--------------------------|--------------------------|
A--0--1--3---3--3(/)6(\)3--|--0--1--3---3--3(/)6(\)3--|
D--0--1--3---3--3(/)6(\)3--|--0--1--3---3--3(/)6(\)3--|

Gtr. 2
E--------------------------|--10----------------------|
B--10----------------------|---T----10----------------|
G---T----------------------|---------T----------------|
D--------------------------|--------------------------|
A--------------------------|--------------------------|
D--------------------------|--------------------------|

Gtr. 1
E--------------------------|
B--------------------------|
G--------------------------|
D--------------------------|
A--0--1--3---3--3(/)6(\)3--|
D--0--1--3---3--3(/)6(\)3--|
[ Tab from: http://www.guitartabs.cc/tabs/s/saliva/click_click_boom_tab_ver_3.html ]
Gtr. 2
E--------------------------|
B--10----------------------|
G---T----------------------|
D--------------------------|
A--------------------------|
D--------------------------|


Chorus

Gtr. 1
E----------------|-----------------|----------------|----------------|
B----------------|-----------------|----------------|----------------|
G----------------|-----------------|----------------|----------------|
D----------------|-----------------|----------------|----------------|
A--0--10--0--10\-|-5-5-5-5-3-5-3-5-|--0--10--0--10--|----------------|
D--0--10--0--10\-|-5-5-5-5-3-5-3-5-|--0--10--0--10--|----------------|

Gtr. 2
E----------------|-----------------|----------------|----------------|
B----------------|-----------------|----------------|----------------|
G----------------|-----------------|----------------|----------------|
D----------------|-----------------|----------------|------------5\--|
A----------------|-----------------|----------------|------------5\--|
D----------------|-----------------|----------------|------------5\--|

Gtr. 1
E----------------|-----------------|----------------|----------------|
B----------------|-----------------|----------------|----------------|
G----------------|-----------------|----------------|----------------|
D----------------|-----------------|----------------|----------------|
A--0--10--0--10\-|-5-5-5-5-3-5-3-5-|--0--10--0--10--|----------------|
D--0--10--0--10\-|-5-5-5-5-3-5-3-5-|--0--10--0--10--|----------------|

Gtr. 2
E----------------|-----------------|----------------|----------------|
B----------------|-----------------|----------------|----------------|
G----------------|-----------------|----------------|----------------|
D----------------|-----------------|----------------|------------5\--|
A----------------|-----------------|----------------|------------5\--|
D----------------|-----------------|----------------|------------5\--|

Gtr. 1
E----------------|-----------------|----------------|----------------|
B----------------|-----------------|----------------|----------------|
G----------------|-----------------|----------------|----------------|
D----------------|-----------------|----------------|----------------|
A--0--10--0--10\-|-5-5-5-5-3-5-3-5-|--0--10--0--10--|----------------|
D--0--10--0--10\-|-5-5-5-5-3-5-3-5-|--0--10--0--10--|----------------|

Gtr. 2
E----------------|-----------------|----------------|----------------|
B----------------|-----------------|----------------|----------------|
G----------------|-----------------|----------------|----------------|
D----------------|-----------------|----------------|------------5\--|
A----------------|-----------------|----------------|------------5\--|
D----------------|-----------------|----------------|------------5\--|

Gtr. 1 (Gtr. 2 tacet)
E----------------|-----------------|----------------|----------------|
B----------------|-----------------|----------------|----------------|
G----------------|-----------------|----------------|----------------|
D----------------|-----------------|----------------|----------------|
A--0--10--0--10\-|-5-5-5-5-3-5-3-5-|--0--10--0--10--|----------------|
D--0--10--0--10\-|-5-5-5-5-3-5-3-5-|--0--10--0--10--|----------------|


Bridge

Gtr. 1                   play 2 times
E------------------------------------|------|
B------------------------------------|------|
G------------------------------------|------|
D--8---8----8---8----5---5----5---5--|--3\--|
A--8---8----8---8----5---5----5---5--|--3\--|
D--8---8----8---8----5---5----5---5--|--3\--|

Gtr. 2                play 15 times
E-----10-----8-----|--10-----8-----|
B--10----10----10--|-----10----10--|
G------------------|---------------|
D------------------|---------------|
A------------------|---------------|
D------------------|---------------|


Interlude

Gtr. 1 w/ tremolo play 4 times
E---------------------------|
B---------------------------|
G---7-----3-------5---------|
D---x-----x-------x---------|
A---5-----1-------3-----3---|
D-----------------------3---|

E------------------------------------|
B------------------------------------|
G--7--------5--------7--------2------|
D--x--------x--------x--------x------|
A--5---8----3---5----5---8----0---5--|
D------8--------5--------8--------5--|

Gtr. 1
E------------------------------------|
B------------------------------------|
G--7--------5--------7--------2------|
D--x--------x--------x--------x------|
A--5---8----3---5----5---8----0------|
D------8--------5--------8-----------|

Gtr. 2
E------------------------------------|
B------------------------------------|
G------------------------------------|
D------------------------------------|
A------------------------------------|
D---------------------------------*\-|


Outro

Gtrs. 1 & 2           play 7 times
E---------------------------------|----------------|
B---------------------------------|----------------|
G---------------------------------|----------------|
D---------------------------------|----------------|
A--0--10--0--10\--5-5-5-5-3-5-3-5-|--0--10--0--10--|
D--0--10--0--10\--5-5-5-5-3-5-3-5-|--0--10--0--10--|


Comments