Saliva - Click Click Boom Chords & Tabs

 

Click Click Boom Chords & Tabs

Saliva Chords & Tabs

Version: 1 Type: Tab 1 rating
1 star 2 stars 3 stars 4 stars 5 stars
comments

Click Click Boom Tab

   
TABLATURE
SONG TITLE: CLICK CLICK BOOM!
ARTIST: SALIVA
ALBUM: EVERY SIX SECONDS
TABBED BY: DANIEL "Ace - A Spades" NIST (lead vocalist, songwriter,
primary lead guitarist, secondary rhythm guitarist, and secondary
bassist of the band Lethal Truth)

What's up everyone?
   
   It's the Ace coming back at you with another great song tab. Click 
Click Boom is a great song by Saliva. Trust me, this tab is correct. I
took the liberty of making it correct. Anyway have fun with it and 
the music alive.

- Ace - 

h = HAMMER ON
p = PULL OFF
s = SLIDE
x = MUTE


INTRO/CHORUS:

PLAY THIS FOR THE INTRO AND FOR THE CHORUS

GUITARS PLAY THIS FOUR TIMES:

NOTE: DROP TUNE TO D AND PLAY WITH HEAVY DIRSTORION

e|---------------------------------------------|
B|---------------------------------------------|
G|---------------------------------------------|
D|---------------------------------------------|
A|-11-11-9h11p9-444-2--11-11-9h11p9------------|
D|-11-11-9h11p9-444-2--11-11-9h11p9------------|

BASS PLAYS THIS FOUR TIMES 

G|---------------------------------------------|
D|---------------------------------------------|
A|---------------------------------------------|
E|-9-9-7h9p7-222-0--9-9-7h9p7------------------|

VERSE:

GUITARS PLAY THIS EIGHT TIMES. THE FIRST FOUR 
TIMES PALM MUTE AND THE LAST FOUR PLAY WITHOUT MUTING.

e|----------|
B|----------|
G|----------|
D|-6-77-999-|
A|-4-55-777-|
D|----------|

BASS PLAYS THIS EIGHT TIMES NO MUTING:
[ Tab from: http://www.guitartabs.cc/tabs/s/saliva/click_click_boom_tab.html ]
G|---------------------------------------------|
D|---------------------------------------------|
A|-4-55-777------------------------------------|
E|---------------------------------------------|

CHORUS:

PLAY INTRO FOUR TIMES

POST CHORUS:

GUITARS PLAY THIS TWICE

e|---------------------------------------------|
B|---------------------------------------------|
G|---------------------------------------------|
D|-6-666-666--6-666-666------------------------|
A|-4-444-444--4-444-444--4-444-444--4-444-444--|
D|-----------------------4-444-444--4-444-444--|

INTERLUDE:

PLAY INTRO TWICE

INTERLUDE TWO:

BASS STARTS PLAYING THIS GUITARS ARE SILENT.

NOTE TO BASSIST: AT THE BEGINNING PLAY THIS ONLY
TWICE

G|---------------------------------------------|
D|---------------------------------------------|
A|---------------------------------------------|
E|-9-5--7-2--9-5--4-7--------------------------|

GUITARS COME IN PLAYING THIS TWICE.
BASS PLAYS THE ABOVE 2 MORE TIMES.

e|---------------------------------------------|
B|---------------------------------------------|
G|---------------------------------------------|
D|---------------------------------------------|
A|-11-11-11--77777--999--44444-----------------|
D|-11-11-11--77777--999--44444-----------------|

e|---------------------------------------------|
B|---------------------------------------------|
G|---------------------------------------------|
D|---------------------------------------------|
A|-11-11-11--77777--666--99999-----------------|
D|-11-11-11--77777--666--99999-----------------|

PLAY CHORUS UNTIL THE END OF THE SONG
Comments