Saliva - Bleed For Me Chords & Tabs

 

Bleed For Me Chords & Tabs

Saliva Chords & Tabs

Version: 4 Type: Tab

Bleed For Me Tab

Saliva - Bleed For Me
Daredevil OST

My first tab!

solo
02:36
E|-4--------------4--------------4-------------------------------|
B|---------------------------------------------------------------|
G|---6-5---5-6------6-5-3-5-6------6-5-3-5-6--1/3-1--------------|
D|-------6------------------------------------------4-3--3-1-----|
A|-----------------------------------------------------------4---|
E|-------------------------------------------------------------4-|
[ Tab from: http://www.guitartabs.cc/tabs/s/saliva/bleed_for_me_tab_ver_4.html ]
02:48                          
E|---------------------------------------------------------------|
B|----------------------------11b---9--11------------------------|
G|---5-6-8-8/10------------10------------10-8--------------------|
D|-6---------------8-10-11--------------------11-----------------|
A|---------------------------------------------------------------|
E|---------------------------------------------------------------|

02:56                                             
E|-----------------------------------------------18b--18-16------|
B|------------------------9-11----14h16h18p16p14-----------------|
G|--------------8--8-10-------10---------------------------------|
D|-8-10-11-10-11-11----------------------------------------------|
A|---------------------------------------------------------------|
E|---------------------------------------------------------------|

b - bend
h - hammer-on
p - pull-off


Not too sure if this is right cause i tabbed it with an acoustic
but it sounds ok when u play along with the song(i think).