Saliva - Bleed For Me Chords & Tabs

 

Bleed For Me Chords & Tabs

Saliva Chords & Tabs

Version: 2 Type: Chords

Bleed For Me Chords

   
song: bleed for me
artist: saliva
ost - daredevil
chords by: dennis villaflor
email: darkangel_awp029@yahoo.com
h=hammer  p=pull off ~=bend

intro:

E|----------------------------------------------|
A|----------------------------------------------|
D|----------------------------------------------|
G|-------11-10-11h10p11------11-11h12-12~-------|
B|--9h11----------------9h11--------------------|
e|----------------------------------------------|

E|----------------------------------------------|
A|----------------------------------------------|
D|----------------------------------------------|
G|-------11-10-11h10p11-9~----------------------|
B|--9h11----------------------------------------|
e|----------------------------------------------|
[ Tab from: http://www.guitartabs.cc/tabs/s/saliva/bleed_for_me_crd_ver_2.html ]
verse 1:
E                B                       C#m
all i ever wanted is to be at your service
             A                                   E
but i'm alone coz you weren't here and you're gone
                 B                        C#m
all i ever wanted was to feel i had a purpose
                   A
but now it's all gone

refrain:
                
but if you could give me
F#m           A
just one love just one life
E                      B      
just one cahnce to believe in mine
F#m           A
just one love just one life

chorus:
          E                        B
and you bleed for me and i didn't get to noticed you
C#m                     A
now i'm stuck out on a line
      E                       B
you bleed for me  and didn't get to be with you
C#m                     A
now i'm stuck out on a line

thank you for reading my piece..GODPSEED!!!