Saliva - Beg Chords & Tabs

 

Beg Chords & Tabs

Saliva Chords & Tabs

Version: 1 Type: Tab 0 ratings
1 star 2 stars 3 stars 4 stars 5 stars
comments

Beg Tab

   
Author/Artist:  Saliva
Title:  Beg
Album:  Every Six Seconds
Transcribed by:  Kevin Webb

I’m pretty sure that this tab is 99% correct.  I spent a couple hours doing it and I’d
appreciate it if you rate it to let me know what you think so I know that I didn’t just waste
my time.

Tuned down one half step drop D
* = Harmonic
P.M.= Palm mute
b= bend
x= muted note

	Guitar 1
D#-----------------------------------------------------------------------------      
A#-----------------------------------------------------------------------------
F#-----------------------------------------------------------------------------
C#---5--5--5--5--4--4--4--4--4--4--4-----5--5--5--5--4--4--4--4--4--4--4-------
G#---5--5--5--5--4--4--4--4--4--4--4-----5--5--5--5--4--4--4--4--4--4--4-------
C#---5--5--5--5--4--4--4--4--4--4--4-----5--5--5--5--4--4--4--4--4--4--4-------

	Guitar 1
D#--------------------------------------------------------------------------
A#--------------------------------------------------------------------------
F#--------------------------------------------------------------------------
C#---5--5--5--5--4--4--4--4--4--4--4----5--5--5--5--4--4--4--4--2-2--------- 
G#---5--5--5--5--4--4--4--4--4--4--4----5--5--5--5--4--4--4--4--2-2---------
C#---5--5--5--5--4--4--4--4--4--4--4----5--5--5--5--4--4--4--4--2-2---------

	

        Guitar 1 (w/ guitar 2)
D#-----------------------------------------------------------------------------      
A#-----------------------------------------------------------------------------
F#-----------------------------------------------------------------------------
C#---5--5--5--5--4--4--4--4--4--4--4-----5--5--5--5--4--4--4--4--4--4--4-------
G#---5--5--5--5--4--4--4--4--4--4--4-----5--5--5--5--4--4--4--4--4--4--4-------
C#---5--5--5--5--4--4--4--4--4--4--4-----5--5--5--5--4--4--4--4--4--4--4-------

	Guitar 2
D#-------------------------------------------------------------------------------
A#-------------------------------------------------------------------------------
F#---7--7--7--7--6--6--6--6--b8(9)-6-6---7--7--7--7--6--6--6--6--b8(9)-6-6-------
C#-------------------------------------------------------------------------------
G#-------------------------------------------------------------------------------    
C#-------------------------------------------------------------------------------      


	Guitar 1 
D#--------------------------------------------------------------------------
A#--------------------------------------------------------------------------
F#--------------------------------------------------------------------------
C#---5--5--5--5--4--4--4--4--4--4--4----5--5--5--5--4--4--4--4--2-2--------- 
G#---5--5--5--5--4--4--4--4--4--4--4----5--5--5--5--4--4--4--4--2-2---------
C#---5--5--5--5--4--4--4--4--4--4--4----5--5--5--5--4--4--4--4--2-2--------- 

	Guitar 2
D#---------------------------------------------------------------------------
A#---------------------------------------------------------------------------
F#---7--7--7--7--6--6--6--6--b8(9)-6-6---7--7--7--7--6--6--6--6--3-3---------
C#---------------------------------------------------------------------------       
G#---------------------------------------------------------------------------      
C#---------------------------------------------------------------------------           


	Guitar 1
D#----------------------------------------------------------------------------
A#----------------------------------------------------------------------------
F#----------------------------------------------------------------------------
C#----------------------------------------------------------------------------       
G#---5--5--5--5--4--4--4--4--4--4--4----5--5--5--5--4--4--4--4--4--4--4-------
C#---5--5--5--5--4--4--4--4--4--4--4----5--5--5--5--4--4--4--4--4--4--4-------
P.M. ..................................................................

	Guitar 2 (let ring)
D#---------------------------------------3-----------------------------------
A#---------------------------------------5-----------------------------------
F#---------------------------------------5-----------------------------------
C#---------------------------------------4-----------------------------------
G#---------------------------------------3-----------------------------------
C#---------------------------------------3-----------------------------------


	Guitar 1
D#---------------------------------------------------------------------
A#---------------------------------------------------------------------
F#---------------------------------------------------------------------
C#-------------------------------------------------------------------2-       
G#---5--5--5--5--4--4--4--4--4--4--4----5--5--5--5--4--4--4--4--4----2-
C#---5--5--5--5--4--4--4--4--4--4--4----5--5--5--5--4--4--4--4--4----2-
P.M. ............................................................

	Guitar 2 (let ring)
D#---------------------------------------3-----------------------------------
A#---------------------------------------5-----------------------------------
F#---------------------------------------5-----------------------------------
C#---------------------------------------4-----------------------------------
G#---------------------------------------3-----------------------------------
C#---------------------------------------3-----------------------------------



	Guitar 1
D#---------------------------------------------------------------------
A#---------------------------------------------------------------------
F#---------------------------------------------------------------------
C#---------------------------------------------------------------------    
G#---5--5--5--5--4--4--4--4--4--4--4----5--5--5--5--4--4--4--4--4--4--4
C#---5--5--5--5--4--4--4--4--4--4--4----5--5--5--5--4--4--4--4--4--4--4
 P.M. .................................................................

	Guitar 2 (let ring)
D#---------------------------------------3-----------------------------------
A#---------------------------------------5-----------------------------------
F#---------------------------------------5-----------------------------------
C#---------------------------------------4-----------------------------------
G#---------------------------------------3-----------------------------------
C#---------------------------------------3-----------------------------------


	Guitar 1
D#---------------------------------------------------------------------
A#---------------------------------------------------------------------
F#---------------------------------------------------------------------
C#-------------------------------------------------------------------2-       
G#---5--5--5--5--4--4--4--4--4--4--4----5--5--5--5--4--4--4--4--4----2-
C#---5--5--5--5--4--4--4--4--4--4--4----5--5--5--5--4--4--4--4--4----2-
P.M...............................................................

	Guitar 2 (let ring)
D#---------------------------------------3-----------------------------------
A#---------------------------------------5-----------------------------------
F#---------------------------------------5-----------------------------------
C#---------------------------------------4-----------------------------------
G#---------------------------------------3-----------------------------------
C#---------------------------------------3-----------------------------------


	Guitars 1 and 2
D#----------------------------------------------------------------------------------
A#----------------------------------------------------------------------------------
F#----------------------------------------------------------------------------------
C#-0--0--3--0--3---3--0--3--0--3--*5-*5-*5--0---0--3--0--3---3--0--3--0--3--1--1--1-
G#-0--0--3--0--3---3--0--3--0--3------------0---0--3--0--3---3--0--3--0--3--1--1--1-
C#-0--0--3--0--3---3--0--3--0--3------------0---0--3--0--3---3--0--3--0--3--1--1--1-

D#----------------------------------------------------------------------------------
A#----------------------------------------------------------------------------------
F#----------------------------------------------------------------------------------
C#-0--0--3--0--3---3--0--3--0--3--*5-*5-*5--0---0--3--0--3---3--0--3--0--3--1--1--1-
G#-0--0--3--0--3---3--0--3--0--3------------0---0--3--0--3---3--0--3--0--3--1--1--1-
C#-0--0--3--0--3---3--0--3--0--3------------0---0--3--0--3---3--0--3--0--3--1--1--1-

D#----------------------------------------------------------------------------------
A#----------------------------------------------------------------------------------
F#----------------------------------------------------------------------------------
C#-0--0--3--0--3---3--0--3--0--3--*5-*5-*5--0---0--3--0--3---3--0--3--0--3--1--1--1-
G#-0--0--3--0--3---3--0--3--0--3------------0---0--3--0--3---3--0--3--0--3--1--1--1-
C#-0--0--3--0--3---3--0--3--0--3------------0---0--3--0--3---3--0--3--0--3--1--1--1-

D#----------------------------------------------------------------------------------
A#----------------------------------------------------------------------------------
F#----------------------------------------------------------------------------------C#-0--0--3--0--3---3--0--3--0--3--*5-*5-*5--0---0--3--0--3---3--0--3--0--3--1--1--1-
G#-0--0--3--0--3---3--0--3--0--3------------0---0--3--0--3---3--0--3--0--3--1--1--1-
C#-0--0--3--0--3---3--0--3--0--3------------0---0--3--0--3---3--0--3--0--3--1--1--1-


	Guitar 1 (w/ guitar 2)
D#-----------------------------------------------------------------------------     A#-----------------------------------------------------------------------------
F#-----------------------------------------------------------------------------
C#---5--5--5--5--4--4--4--4--4--4--4-----5--5--5--5--4--4--4--4--4--4--4-------
G#---5--5--5--5--4--4--4--4--4--4--4-----5--5--5--5--4--4--4--4--4--4--4-------
C#---5--5--5--5--4--4--4--4--4--4--4-----5--5--5--5--4--4--4--4--4--4--4-------

	Guitar 2
D#--------------------------------------------------------------------------------
A#--------------------------------------------------------------------------------
F#---7--7--7--7--6--6--6--6--b8(9)-6-6---7--7--7--7--6--6--6--6--b8(9)-6-6--------
C#--------------------------------------------------------------------------------
G#--------------------------------------------------------------------------------  C#--------------------------------------------------------------------------------      


	Guitar 1 
D#--------------------------------------------------------------------------
A#--------------------------------------------------------------------------
F#--------------------------------------------------------------------------
C#---5--5--5--5--4--4--4--4--4--4--4----5--5--5--5--4--4--4--4--2-2--------- 
G#---5--5--5--5--4--4--4--4--4--4--4----5--5--5--5--4--4--4--4--2-2---------
C#---5--5--5--5--4--4--4--4--4--4--4----5--5--5--5--4--4--4--4--2-2--------- 

	Guitar 2
D#---------------------------------------------------------------------------
A#---------------------------------------------------------------------------
F#---7--7--7--7--6--6--6--6--b8(9)-6-6---7--7--7--7--6--6--6--6--3-3---------
C#---------------------------------------------------------------------------       
G#---------------------------------------------------------------------------      
C#---------------------------------------------------------------------------       

[ Tab from: http://www.guitartabs.cc/tabs/s/saliva/beg_tab.html ]
	Guitar 1
D#----------------------------------------------------------------------------
A#----------------------------------------------------------------------------
F#----------------------------------------------------------------------------
C#----------------------------------------------------------------------------       
G#---5--5--5--5--4--4--4--4--4--4--4----5--5--5--5--4--4--4--4--4--4--4-------
C#---5--5--5--5--4--4--4--4--4--4--4----5--5--5--5--4--4--4--4--4--4--4-------
P.M....................................................................

	Guitar 2
D#--------------------7---5--------------------------------------------------    
A#------------------6--------------------------------------------------------
F#----------------5----------------------------------------------------------
C#---------------------------------------------------------------------------
G#---------------------------------------------------------------------------
C#---------------------------------------------------------------------------



	Guitar 1
D#----------------------------------------------------------------------------
A#----------------------------------------------------------------------------
F#----------------------------------------------------------------------------
C#-------------------------------------------------------------------2--------       
G#---5--5--5--5--4--4--4--4--4--4--4----5--5--5--5--4--4--4--4--4----2--------
C#---5--5--5--5--4--4--4--4--4--4--4----5--5--5--5--4--4--4--4--4----2--------
P.M. .............................................................

	Guitar 2
D#--------------------7---5--------------------------------------------------    
A#------------------6--------------------------------------------------------
F#----------------5----------------------------------------------------------
C#---------------------------------------------------------------------------
G#---------------------------------------------------------------------------
C#---------------------------------------------------------------------------



	Guitar 1
D#----------------------------------------------------------------------------
A#----------------------------------------------------------------------------
F#----------------------------------------------------------------------------
C#----------------------------------------------------------------------------       
G#---5--5--5--5--4--4--4--4--4--4--4----5--5--5--5--4--4--4--4--4--4--4-------
C#---5--5--5--5--4--4--4--4--4--4--4----5--5--5--5--4--4--4--4--4--4--4-------
P.M. ...................................................................

	Guitar 2
D#--------------------7---5--------------------------------------------------    
A#------------------6--------------------------------------------------------
F#----------------5----------------------------------------------------------
C#---------------------------------------------------------------------------
G#---------------------------------------------------------------------------
C#---------------------------------------------------------------------------



	Guitar 1
D#----------------------------------------------------------------------------
A#----------------------------------------------------------------------------
F#----------------------------------------------------------------------------
C#-------------------------------------------------------------------2--------       
G#---5--5--5--5--4--4--4--4--4--4--4----5--5--5--5--4--4--4--4--4----2--------
C#---5--5--5--5--4--4--4--4--4--4--4----5--5--5--5--4--4--4--4--4----2--------
 P.M. ............................................................

	Guitar 2
D#--------------------7---5--------------------------------------------------    
A#------------------6--------------------------------------------------------
F#----------------5----------------------------------------------------------
C#---------------------------------------------------------------------------
G#---------------------------------------------------------------------------
C#---------------------------------------------------------------------------


Guitars 1 and 2
D#----------------------------------------------------------------------------------
A#----------------------------------------------------------------------------------
F#----------------------------------------------------------------------------------
C#-0--0--3--0--3---3--0--3--0--3--*5-*5-*5--0---0--3--0--3---3--0--3--0--3--1--1--1-
G#-0--0--3--0--3---3--0--3--0--3------------0---0--3--0--3---3--0--3--0--3--1--1--1-
C#-0--0--3--0--3---3--0--3--0--3------------0---0--3--0--3---3--0--3--0--3--1--1--1-

D#----------------------------------------------------------------------------------
A#----------------------------------------------------------------------------------
F#----------------------------------------------------------------------------------
C#-0--0--3--0--3---3--0--3--0--3--*5-*5-*5--0---0--3--0--3---3--0--3--0--3--1--1--1-
G#-0--0--3--0--3---3--0--3--0--3------------0---0--3--0--3---3--0--3--0--3--1--1--1-
C#-0--0--3--0--3---3--0--3--0--3------------0---0--3--0--3---3--0--3--0--3--1--1--1-

D#----------------------------------------------------------------------------------
A#----------------------------------------------------------------------------------
F#----------------------------------------------------------------------------------
C#-0--0--3--0--3---3--0--3--0--3--*5-*5-*5--0---0--3--0--3---3--0--3--0--3--1--1--1-
G#-0--0--3--0--3---3--0--3--0--3------------0---0--3--0--3---3--0--3--0--3--1--1--1-
C#-0--0--3--0--3---3--0--3--0--3------------0---0--3--0--3---3--0--3--0--3--1--1--1-

D#----------------------------------------------------------------------------------
A#----------------------------------------------------------------------------------
F#----------------------------------------------------------------------------------
C#-0--0--3--0--3---3--0--3--0--3--*5-*5-*5--0---0--3--0--3---3--0--3--0--3--1--1--1-
G#-0--0--3--0--3---3--0--3--0--3------------0---0--3--0--3---3--0--3--0--3--1--1--1-
C#-0--0--3--0--3---3--0--3--0--3------------0---0--3--0--3---3--0--3--0--3--1--1--1-


	Guitars 1 and 2 (slowly slide finger down, listen to section for rythm)
D#----------x-x---x--xx-x----x-x--x---x----x---x-----x----x----x---x---x----x-------
A#----------x-x---x--xx-x----x-x--x---x----x---x-----x----x----x---x---x----x-------
F#----------------------------------------------------------------------------------
C#----------------------------------------------------------------------------------
G#----------------------------------------------------------------------------------C#----------------------------------------------------------------------------------


	Guitars 1 and 2
D#----------------------------------------------------------------------------------
A#----------------------------------------------------------------------------------
F#----------------------------------------------------------------------------------
C#---1---0--6----1--1--1--1---0--6----1--1--1--1---0--6----1--1--1--1---0--6--------
G#---1---0--6----1--1--1--1---0--6----1--1--1--1---0--6----1--1--1--1---0--6--------
C#---1---0--6----1--1--1--1---0--6----1--1--1--1---0--6----1--1--1--1---0--6--------

D#----------------------------------------------------------------------------------
A#----------------------------------------------------------------------------------
F#----------------------------------------------------------------------------------
C#--1--1--1--1---0--6----1--1--1--1---0--6---1--1--1--1---0--6----1--1--1--1---0--6-
G#--1--1--1--1---0--6----1--1--1--1---0--6---1--1--1--1---0--6----1--1--1--1---0--6-C#--1--1--1--1---0--6----1--1--1--1---0--6---1--1--1--1---0--6----1--1--1--1---0--6-


	Guitar 1
D#----------------------------------------------------------------------------------
A#----------------------------------------------------------------------------------
F#----------------------------------------------------------------------------------
C#-------------------------------------------0---0--3--0--3--3--0--3--0--3--1--1--1-G#-------------------------------------------0---0--3--0--3--3--0--3--0--3--1--1--1-
C#-------------------------------------------0---0--3--0--3--3--0--3--0--3--1--1--1-

	Guitar 2 (starts in the background)
D#----------------------------------------------------------------------------------
A#----------------------------------------------------------------------------------
F#----------------------------------------------------------------------------------
C#--0--0--3--0--3---3--0--3--0--3--*5-*5-*5--0---0--3--0--3--3--0--3--0--3--1--1--1-
G#--0--0--3--0--3---3--0--3--0--3------------0---0--3--0--3--3--0--3--0--3--1--1--1-
C#--0--0--3--0--3---3--0--3--0--3------------0---0--3--0--3--3--0--3--0--3--1--1--1-

	Guitars 1 and 2
D#----------------------------------------------------------------------------------
A#----------------------------------------------------------------------------------
F#----------------------------------------------------------------------------------
C#-0--0--3--0--3---3--0--3--0--3--*5-*5-*5--0---0--3--0--3---3--0--3--0--3--1--1--1-
G#-0--0--3--0--3---3--0--3--0--3------------0---0--3--0--3---3--0--3--0--3--1--1--1-
C#-0--0--3--0--3---3--0--3--0--3------------0---0--3--0--3---3--0--3--0--3--1--1--1-

D#----------------------------------------------------------------------------------
A#----------------------------------------------------------------------------------
F#----------------------------------------------------------------------------------
C#-0--0--3--0--3---3--0--3--0--3--*5-*5-*5--0---0--3--0--3---3--0--3--0--3--1--1--1-
G#-0--0--3--0--3---3--0--3--0--3------------0---0--3--0--3---3--0--3--0--3--1--1--1-
C#-0--0--3--0--3---3--0--3--0--3------------0---0--3--0--3---3--0--3--0--3--1--1--1-

D#----------------------------------------------------------------------------------
A#----------------------------------------------------------------------------------
F#----------------------------------------------------------------------------------
C#-0--0--3--0--3---3--0--3--0--3--*5-*5-*5--0---0--3--0--3---3--0--3--0--3--1--1--1-
G#-0--0--3--0--3---3--0--3--0--3------------0---0--3--0--3---3--0--3--0--3--1--1--1-
C#-0--0--3--0--3---3--0--3--0--3------------0---0--3--0--3---3--0--3--0--3--1--1--1-

D#----------------------------------------------------------------------------------
A#----------------------------------------------------------------------------------
F#----------------------------------------------------------------------------------
C#---1---0--6----1--1--1--1---0--6----1--1--1--1---0--6----1--1--1--1---0--6--------
G#---1---0--6----1--1--1--1---0--6----1--1--1--1---0--6----1--1--1--1---0--6--------
C#---1---0--6----1--1--1--1---0--6----1--1--1--1---0--6----1--1--1--1---0--6--------

D#----------------------------------------------------------------------------------
A#----------------------------------------------------------------------------------
F#----------------------------------------------------------------------------------
C#--1--1--1--1---0--6----1--1--1--1---0--6---1--1--1--1---0--6----1--1--1--1---0--6-
G#--1--1--1--1---0--6----1--1--1--1---0--6---1--1--1--1---0--6----1--1--1--1---0--6-
C#--1--1--1--1---0--6----1--1--1--1---0--6---1--1--1--1---0--6----1--1--1--1---0--6-

D#----------------------------------------------------------------------------------
A#----------------------------------------------------------------------------------
F#----------------------------------------------------------------------------------
C#--1--1--1--1---0--6----1--1--1--1---0--6---1--1--1--1---0--6----1--1--1--1---0--6-
G#--1--1--1--1---0--6----1--1--1--1---0--6---1--1--1--1---0--6----1--1--1--1---0--6-C#--1--1--1--1---0--6----1--1--1--1---0--6---1--1--1--1---0--6----1--1--1--1---0--6-

D#----------------------------------------------------------------------------------
A#----------------------------------------------------------------------------------
F#----------------------------------------------------------------------------------
C#--1--1--1--1---0--6----1--1--1--1---0--6---1--1--1--1---0--6----1--1--1--1---0--6-
G#--1--1--1--1---0--6----1--1--1--1---0--6---1--1--1--1---0--6----1--1--1--1---0--6-C#--1--1--1--1---0--6----1--1--1--1---0--6---1--1--1--1---0--6----1--1--1--1---0--6-



Comments