Saliva - Beg Chords & Tabs

 

Beg Chords & Tabs

Saliva Chords & Tabs

Version: 1 Type: Bass Tab 0 ratings
1 star 2 stars 3 stars 4 stars 5 stars
comments

Beg Bass Tab

Song: Beg
Artist: Saliva
Album: Every Six Seconds
Tabbed By: Cheran Shunmugavel
           gfngfgf@hotmail.com

Lowered One and a Half Step Tuning (Db Gb B E)


E -|--------------------------|----------------------------|
B -|--------------------------|---------------------------*|
Gb-|--------------------------|*--------------------------*|
Db-|-5-5-5-5p4-4--4--4-4--4-4-|--4-5-5-5p4-4--4--4-4--4-4--|

E -|--------------------------|--------------------------|
B -|--------------------------|--------------------------|
Gb-|--------------------------|--------------------------|
Db-|-4-5-5-5p4-4--4--4-2--2-2-|-2-5-5-5p4-4--4--4-4--4-4-|

E -|----------------------------|--------------------------|
B -|*--------------------------*|--------------------------|
Gb-|*--------------------------*|--------------------------|
Db-|--4-5-5-5p4-4--4--4-4--4-4--|-4-5-5-5p4-4--4--4-2--2-2-|


Verse 1
E -|-----------------------------|-----|-----|-------------------------------|
B -|*----------------------------|--%--|--%--|------------------------------*|
Gb-|*----------------.----.----.-|-----|-----|----------------.----.--------*|
Db-|--2-4-4-4-2-4-4--4--2-4--2-4-|-----|-----|-2-4-4-4-2-4-4--4--2-4--2-5----|
   PM ^ ^ ^ ^ ^ ^ ^  ^  ^ ^  ^ ^               ^ ^ ^ ^ ^ ^ ^  ^  ^ ^


Chorus 1
E -|------------------------------|------------------------------|
B -|------------------------------|------------------------------|
Gb-|------------------------------|-.----------------------------|
Db-|-5\--0--3-0-3--0-0-3-0-3--r---|-0--0-3-0-3--0-0-3-0-3--0-1-1-|

E -|-----------------------------|-------------------------------|
B -|*----------------------------|------------------------------*|
Gb-|*-.--------------------------|-.----------------------------*|
Db-|--0--0-3-0-3--0-0-3-0-3--r---|-0--0-3-0-3--0-0-3-0-3--0-1-1--|
[ Tab from: http://www.guitartabs.cc/tabs/s/saliva/beg_btab.html ]
E -|----------------------------|------------------------|
B -|----------------------------|------------------------|
Gb-|-.--------------------------|-.-------------------.--|
Db-|-0--0-3-0-3--0-0-3-0-3--r---|-0--0-3-0-3--0-0-3-0-3--|


E -|--------------------------|----------------------------|
B -|--------------------------|---------------------------*|
Gb-|--------------------------|*--------------------------*|
Db-|-5-5-5-5p4-4--4--4-4--4-4-|--4-5-5-5p4-4--4--4-4--4-4--|

E -|--------------------------|
B -|--------------------------|
Gb-|--------------------------|
Db-|-4-5-5-5p4-4--4--4-2--2-2-|


Verse 2 is the same as Verse 1


Chorus 2
E -|------------------------------|------------------------------|
B -|------------------------------|------------------------------|
Gb-|------------------------------|-.----------------------------|
Db-|-5\--0--3-0-3--0-0-3-0-3--r---|-0--0-3-0-3--0-0-3-0-3--0-1-1-|

                                                                X3
E -|-----------------------------|-------------------------------|
B -|*----------------------------|------------------------------*|
Gb-|*-.--------------------------|-.----------------------------*|
Db-|--0--0-3-0-3--0-0-3-0-3--r---|-0--0-3-0-3--0-0-3-0-3--0-1-1--|


Bridge
E -|------------------|
B -|*----------------*|  Repeat a
Gb-|*------.---------*|  lot, then:
Db-|--1--0-5---1-1-1--|

E -|--------|
B -|--------|
Gb-|------.-|
Db-|-1--0-5-|


Chorus 3
E -|------|------------------------------|
B -|-rest-|------------------------------|
Gb-|------|-.----------------------------|
Db-|------|-0--0-3-0-3--0-0-3-0-3--0-1-1-|

                                                                X3
E -|-----------------------------|-------------------------------|
B -|*----------------------------|------------------------------*|
Gb-|*-.--------------------------|-.----------------------------*|
Db-|--0--0-3-0-3--0-0-3-0-3--r---|-0--0-3-0-3--0-0-3-0-3--0-1-1--|


The Outro is the same as the Bridge


<>
Comments