Saliva - Back Into Your System Chords & Tabs

 

Back Into Your System Chords & Tabs

Saliva Chords & Tabs

Version: 1 Type: Tab 0 ratings
1 star 2 stars 3 stars 4 stars 5 stars
comments

Back Into Your System Tab

Band- Saliva
Song- Back Into Your System

This song is 1/2 step down in drop-d.
guitar 1
------------------------0-0-0-0-0-0-0-0---------------------------------------|
---8---7---5---3-----3--2/3-3-3-3-3-3-3---------------------------------------|
-----------------2/4----2-2-2-2-2-2-2-2---------------------------------------|
-0---0---0---0----------------------------------------------------------------|
------------------------------------------------------------------------------|
------------------------------------------------------------------------------|

guitar 1
------------------------0-0-0-0-0-0-0-0---------------------------------------|
---8---7---5---3-----3--2/3-3-3-3-3-3-2---------------------------------------|
-----------------2/4----2-2-2-2-2-2-2-2---------------------------------------|
-0---0---0---0----------------------------------------------------------------|
------------------------------------------------------------------------------|
------------------------------------------------------------------------------|

guitar 1
------------------------------------------------------------------------------|
-7b8r7---7b8r7-----7b8r7---7b8r7-----7b8r7---7b8r7--8/7-7p5h7p5-5-3-2-2-3-3---|
-------7-------7---------7-------7---------7----------------------------------|
------------------------------------------------------------------------------|
------------------------------------------------------------------------------|
------------------------------------------------------------------------------|

guitar 1
------------------------------------------------------------------------------|
-7b8r7---7b8r7-----7b8r7---7b8r7-----7b8r7---7b8r7----------------------------|
-------7-------7---------7-------7---------7-------2/4------------------------|
------------------------------------------------------------------------------|
------------------------------------------------------------------------------|
------------------------------------------------------------------------------|

guitar 2
------------------------------------------------------------------------------|
------------------------------------------------------------------------------|
------------------------------------------------------------------------------|
-12-12-12-12-12-12-12-12-7-7-7-7-7-7-7-7-5-5-5-5-5-5-5-5-8-8-8-8-8-8-8-8------|
-12-12-12-12-12-12-12-12-7-7-7-7-7-7-7-7-5-5-5-5-5-5-5-5-8-8-8-8-8-8-8-8------|
-12-12-12-12-12-12-12-12-7-7-7-7-7-7-7-7-5-5-5-5-5-5-5-5-8-8-8-8-8-8-8-8------|

guitar 3
-14b15r14----14b15r14----14b15r14----14b15r14----14b15r14----14b15r14---------|
----------15----------15----------15----------15----------15----------15------|
------------------------------------------------------------------------14/16-|
------------------------------------------------------------------------------|
------------------------------------------------------------------------------|
------------------------------------------------------------------------------|

guitar 1
------------------------------------------------------------------------------|
-5-----5-----5-----5---6-5-----5-----5-----5---6------------------------------|
---7-----7-----7-----7-----7-----7-----7-----7--------------------------------|
-----7-----7-----7-----------7-----7-----7------------------------------------|
------------------------------------------------------------------------------|
------------------------------------------------------------------------------|
[ Tab from: http://www.guitartabs.cc/tabs/s/saliva/back_into_your_system_tab.html ]
guitar 2
-5-5-5-5-5-5-5-5-5-5-5-5-5-5-5-3-3-3-3-3-3-3-3-3-3-6-6-6-6-6-6-6-6-6----------|
-3-3-3-3-3-3-3-3-3-3-3-3-3-3-3-3-3-3-3-3-3-3-3-3-3-3-3-3-3-3-3-3-3-3----------|
------------------------------------------------------------------------------|
------------------------------------------------------------------------------|
------------------------------------------------------------------------------|
------------------------------------------------------------------------------|
. . . . . . . . . . . . . . . . . . . . . . . . . . . . . . . . . .
guitar 1
------------------------------------------------------------------------------|
------------------------------------------------------------------------------|
------------------------------------------------------------------------------|
-0-3-5--0-3/6-5-3-0-0-x-x-x-0-3-5-0/6-5---3-3---3-3---3-3---5-5-3-5-6-5-3-----|
-0-3-5--0-3/6-5-3-0-0-x-x-x-0-3-5-0/6-5---3-3---3-3---3-3---5-5-3-5-6-5-3-----|
-0-3-5--0-3/6-5-3-0-0-x-x-x-0-3-5-0/6-5---3-3---3-3---3-3---5-5-3-5-6-5-3-----|
. . . . . . . .
guitar 1
------------------------------------------------------------------------------|
-3-------3-------5-------5----------------------------------------------------|
---5---5---5---5---7---7---7---7----------------------------------------------|
-----5-------5-------7-------7------------------------------------------------|
------------------------------------------------------------------------------|
------------------------------------------------------------------------------|

guitar 2
------------------------------------------------------------------------------|
------------------------------------------------------------------------------|
------------------------------------------------------------------------------|
-8-8-8-8-8-8-8-8-10-10-10-10-10-10-10-10--------------------------------------|
-8-8-8-8-8-8-8-8-10-10-10-10-10-10-10-10--------------------------------------|
-8-8-8-8-8-8-8-8-10-10-10-10-10-10-10-10--------------------------------------|

guitar 2
------------------------------------------------------------------------------|
------------------------------------------------------------------------------|
------------------------------------------------------------------------------|
-12-12-12-12-12-12-12-12-7-7-7-7-7-7-7-7-9-9-9-9-9-9-9-9-10-10-10-10-10-10----|
-12-12-12-12-12-12-12-12-7-7-7-7-7-7-7-7-9-9-9-9-9-9-9-9-10-10-10-10-10-10----|
-12-12-12-12-12-12-12-12-7-7-7-7-7-7-7-7-9-9-9-9-9-9-9-9-10-10-10-10-10-10----|

guitar 1 solo
-15b16r15-14-12----12----------------------14p12h14-15b16r14-15b-19b20vvv-----|
----------------14----14p12h14-------12h14------------------------------------|
-------------------------------13/14------------------------------------------|
------------------------------------------------------------------------------|
------------------------------------------------------------------------------|
------------------------------------------------------------------------------|

guitar 1
------------------------------------------------------------------------------|
------------------------------------------------------------------------------|
------------------------------------------------------------------------------|
-0-3-5-0-6-5--3-3---3-3---3-3--5-3-5-6-5-3--3-3---3-3---3-3---5-3-5-6-5-3--0~-|
-0-3-5-0-6-5--3-3---3-3---3-3--5-3-5-6-5-3--3-3---3-3---3-3---5-3-5-6-5-3--0~-|
-0-3-5-0-6-5--3-3---3-3---3-3--5-3-5-6-5-3--3-3---3-3---3-3---5-3-5-6-5-3--0~-|
grad. Slow down
Comments