Saliva - Always Chords & Tabs

 

Always Chords & Tabs

Saliva Chords & Tabs

Version: 4 Type: Tab 0 ratings
1 star 2 stars 3 stars 4 stars 5 stars
comments

Always Tab

Artist – Saliva
Song Title – Always
Tabbed by Pilch

This is an awesome song and when it comes out on general release it is gonna sell out totally. I advise you to download this from winmx or kazaa to experience this amazing song. Enough of da bullshit here’s the tab.

This tab is 100% correct. It’s so simple to play and totally accurate. The other tab is kinda right but this is totally correct.

Intro
E --------------------------------------------]
B --------------------------------------------]
G --------------------------------------------]     X 4
C --------3----------6---------1----------8---]
G -----3----------6----------1----------8-----]
C ---3------3---6------6---1-----1---8------8-]

Pre Chorus
E ----------------------------------]
B ----------------------------------]
G ----------------------------------]
C --88888888666666663333333366668888]
G --88888888666666663333333366668888]
C --88888888666666663333333366668888]

Chorus
E ------------------------------------------]
B ------------------------------------------]
G ------------------------------------------]         X2
C --3-3-xx---x6-6-xx---x1-1-xx---x8-8-xx---x]
G --3-3-xx---x6-6-xx---x1-1-xx---x8-8-xx---x]
C --3-3-xx---x6-6-xx---x1-1-xx---x8-8-xx---x]

E ------------------]
B ------------------]
G ------------------]     X2
C --3333666611118888]
G --3333666611118888]
C --3333666611118888]

Post Chorus
E -------------------------------------]
B --4-6-7---4-6-7---4-6-7---4-6-7------]
G -------------------------------------]   X2
C -------------------------------------]
G -------------------------------------]
C -------------------------------------]

Verse
E ---------------------------]
B --6-4---6-4---6-4---6-7----]
G ---------------------------]       X4
C ---------------------------]
G ---------------------------]
C ---------------------------]

Pre Chorus
E ----------------------------------]
B ----------------------------------]
G ----------------------------------]
C --88888888666666663333333366668888]
G --88888888666666663333333366668888]
C --88888888666666663333333366668888]

Chorus
E ------------------------------------------]
B ------------------------------------------]
G ------------------------------------------]         X2
C --3-3-xx---x6-6-xx---x1-1-xx---x8-8-xx---x]
G --3-3-xx---x6-6-xx---x1-1-xx---x8-8-xx---x]
C --3-3-xx---x6-6-xx---x1-1-xx---x8-8-xx---x]
[ Tab from: http://www.guitartabs.cc/tabs/s/saliva/always_tab_ver_4.html ]
E ------------------]
B ------------------]
G ------------------]     X2
C --3333666611118888]
G --3333666611118888]
C --3333666611118888]


Chorus
E ------------------------------------------]
B ------------------------------------------]
G ------------------------------------------]         X1
C --3-3-xx---x6-6-xx---x1-1-xx---x8-8-xx---x]
G --3-3-xx---x6-6-xx---x1-1-xx---x8-8-xx---x]
C --3-3-xx---x6-6-xx---x1-1-xx---x8-8-xx---x]

E ------------------]
B ------------------]
G ------------------]
C --8888888866666666]
G --8888888866666666]
C --8888888866666666]

E ---------------------]
B ---------------------]
G ---------------------]    X2
C --33333---33333--4444]
G --33333---33333--4444]
C --33333---33333--4444]

E ------------------]
B ------------------]
G ------------------]
C --8888888866666666]
G --8888888866666666]
C --8888888866666666]

E ---------------------]
B ---------------------]
G ---------------------]    X2
C --33333---33333--4444]
G --33333---33333--4444]
C --33333---33333--4444]

E ------------------]
B ------------------]
G ------------------]
C --3333333366668888]
G --3333333366668888]
C --3333333366668888]

Intro
E --------------------------------------------]
B --------------------------------------------]
G --------------------------------------------]     X 4
C --------3----------6---------1----------8---]
G -----3----------6----------1----------8-----]
C ---3------3---6------6---1-----1---8------8-]

Chorus
E ------------------------------------------]
B ------------------------------------------]
G ------------------------------------------]         X2
C --3-3-xx---x6-6-xx---x1-1-xx---x8-8-xx---x]
G --3-3-xx---x6-6-xx---x1-1-xx---x8-8-xx---x]
C --3-3-xx---x6-6-xx---x1-1-xx---x8-8-xx---x]

E ------------------]
B ------------------]
G ------------------]     X2
C --3333666611118888]
G --3333666611118888]
C --3333666611118888]

E -----------------]
B -----------------]
G -----------------]     X4
C --3-3-6-6-1-1-8-8]
G --3-3-6-6-1-1-8-8]
C --3-3-6-6-1-1-8-8]

Chorus
E ------------------------------------------]
B ------------------------------------------]
G ------------------------------------------]         X2
C --3-3-xx---x6-6-xx---x1-1-xx---x8-8-xx---x]
G --3-3-xx---x6-6-xx---x1-1-xx---x8-8-xx---x]  let last chord ring
C --3-3-xx---x6-6-xx---x1-1-xx---x8-8-xx---x]

Outro
B --6-7-4--6-7-4--6-7-4--6-7-4] fade…..

Just follow the tab exactly & u will be able to play this awesome song
Listen to it to get the right timing but it's really simple
have fun...............
Comments